Song name
# A B C D E F G H I J K L M N O P Q R S T U V W X Y Z

Lucie - Lucie tab

-------------------------------------------------------------------------------
			     LUCIE - Lucie
-------------------------------------------------------------------------------
Tabbed by: Vitezslav Petr, 4.4.2014
E-mail:

Tuning: standard E

Intro + verses/sloky:

   "Jdou houfy zen..."
e|---------------------------------------------------------------------------|
B|---------------------------------------------------------------------------|
G|--------4--------------4--------------4--------------4---------------------|
D|-----4-----4--------4-----4--------4-----4--------4-----4------------------|
A|--2--------------0---------------------------------------------------------|
E|--------------------------------3--------------3---------------------------|

Strings section staccato (according to rhythm guitar in verses, see above):
e|---------------------------------------------------------------------------|
B|---------------------------------------------------------------------------|
G|-----------------------------------------------------------9---------------|
D|--9--9--9--------11--12--11--9--12--11~--------9~-9--11-12-----------------|
A|---------------------------------------------------------------------------|
E|---------------------------------------------------------------------------|

e|---------------------------------------------------------------------------|
B|---------------------------------------------------------------------------|
G|------------------------------------12~--------11~-------------------------|
D|--9--9--9--------11--12--11--9--9------------------------------------------|
A|---------------------------------------------------------------------------|
E|---------------------------------------------------------------------------|

Chorus/Refren:
   "Vis svy...."
e|---------------------------------------------------------------------------|
B|---------------------------------------------------------------------------|
G|--------4--------------4--------------7--------------7--------------2------|
D|-----4-----4--------4-----4--------7-----7--------7-----7--------2-----2---|
A|--2--------------2--------------5--------------5--------------0------------|
E|---------------------------------------------------------------------------|

e|---------------------------------------------------------------------------|
B|---------------------------------------------------------------------------|
G|--------2--------------4--------------4------------------------------------|
D|-----2-----2--------4-----4--------4-----4---------------------------------|
A|--0------------------------------------------------------------------------|
E|-----------------3--------------2------------------------------------------|

Strings section staccato (according to rhythm guitar in chorus, see above):
e|---------------------------------------------------------------------------|
B|---------------------------------------------------------------------------|
G|---------------------------------------------------------------------------|
D|---------------------------------------------------------------------------|
A|--2--2--2-----------2--2/4------5--5-4-5--5-4-5--5-4-5--4-----0--0--0------|
E|---------------------------------------------------------------------------|

e|---------------------------------------------------------------------------|
B|---------------------------------------------------------------------------|
G|---------------------------------------------------------------------------|
D|---------------------------------------------------------------------------|
A|---------------------------------------------------------------------------|
E|--0--0--0-------3~--------------2~-----------------------------------------|

and the closing chord:
e|------2--------------------------------------------------------------------|
B|-----2---------------------------------------------------------------------|
G|----4----------------------------------------------------------------------|
D|---4-----------------------------------------------------------------------|
A|--2------------------------------------------------------------------------|
E|---------------------------------------------------------------------------|


************************************

| /   slide up
| \   slide down
| h   hammer-on
| p   pull-off
| ~   vibrato
| +   harmonic
| x   Mute note
| b   Bend
| pb  Pre-bend
| br  Bend release
| pbr Pre-bend release
| brb Bend release bend

************************************
Tap to rate this tab
# A B C D E F G H I J K L M N O P Q R S T U V W X Y Z