Song name
# A B C D E F G H I J K L M N O P Q R S T U V W X Y Z

Lucio Dalla - Tu Non Mi Basti Mai tab

Lucio Dalla - Tu non mi basti mai

INTRO

E--------------------------------------------------|
B--------------------------------------------------|
G--------------------------------------------------|
D--------------------------------------------------|
A--3----5-3--2-3---5-3--2-3---5-3--2-3---5-3--2-3--|
E--------------------------------------------------|

Verse

E--------------------------------------------------|
B--------------------------------------------------|
G--------------------------------------------------|
D--1-------1---------1-------1---------------------| 3X
A----5-3-5---3---------5-3-5---3-------------------|
E--------------------------------------------------|

E------------------------|
B------------------------|
G------------------------|
D--1---------------------|
A----3---5-3---5-3---2-3-|
E------------------------|
Tap to rate this tab
 
# A B C D E F G H I J K L M N O P Q R S T U V W X Y Z