Song name
# A B C D E F G H I J K L M N O P Q R S T U V W X Y Z

Lucky 13 - Portrait tab

This is the tab for Portrait by Lucky 13.
Written and submitted my Alex Smith.

Chords used: Am,C,F,G
This is a good song so learn it!

Intro:
1e-----------------------------------------|
2b---------1---------1---------1---------1-|
3g-------2---------2---------0---------0---| x4
4d-----2---------2---------2---------0-----|
5a---0---------0---------3---------2-------|
6e-----------------------------------------|

Verse:
1e------------------0------|
2b---1-1-1-1-1-1----1----1-|
3g---2-2-2-2-2-2----0----0-| Play until the Chorus
4d---2-2-2-2-2-2----2----2-|
5a---0-0-0-0-0-0-33-3-32-2-|
6e-------------------------|

Chorus:
Now I'm just a portrait
Am               F
Hanging on the wall
G
But you can only just see me
Am                    F
Because the canvas is old
G
But this painting
Am       F
Wasn't mean't to be sold
G
Because it's just a portrait of the life I stole
Am                                  G


Theres all the tab but the solo-Apart from that you can just listen to the song and just 
the order right, it just repeats what i've given you.
Good luck1
Any queries email:alexsmith27@hotmail.co.uk
Tap to rate this tab
# A B C D E F G H I J K L M N O P Q R S T U V W X Y Z