Guitaretab - guitar tabs
Song name
# A B C D E F G H I J K L M N O P Q R S T U V W X Y Z

Lucy Pearl - Dont Mess With My Man tab

Title: Don't mess with my man
Artist: Lucy Pearl
Tabed from: noe (noe@truebash.org)

Chords:

Main riff:

 (f#)    (c#)  (dmaj7)  (E)
|---2------4------5------0--------------|
|---2------5------7------0--------------|
|---2------6------6------1--------------|
|---4------6------7------2--------------|
|---4------4------5------2--------------|
|---2------x------x------0--------------|


goes on and on...
[ Tab from: http://www.guitaretab.com/l/lucy-pearl/61654.html ]
alternative chords for dmaj7 (might be easier for beginers):

--2--
--2--
--2--
--0--
--x--
--x--


lead melody (for rhythm listen to song):

|-------------------------------------------------|
|-------------------------------------------------|
|--------------------------6----7-7-7-7---9-9-9---|
|---4-4-4---4-4-4--4-4-6--------------------------|
|------------------------4------------------------|
|-------------------------------------------------|



hello world :>