Song name
# A B C D E F G H I J K L M N O P Q R S T U V W X Y Z

Luis Bacalov - Il Postino tab

This is the best version ! sounds very good


e |-----0---------------------|-----------------------|----2-------|
B |--2-----2---5--------------|-----7-----5-----------|--5---5--5--|
G |------------2------4--2--6-|---6---6---4-----4---4-|---------2--|
D |------------2----2---------|-----------2---2---2---|---------4--|
A |------------0--------------|-----------------------|------------|
E |---------------------------|-----------4-----------|---------2--|

e |-------5--|------------|-----------------------0-|-------------------0|
B |3-3-2-3-3-|--2----2--2-|-2-3-2--2--0---2-0-------|---------0-------2--|
G |----------|--2---------|--------1----------3-4---|-1-4-2-1---2-1-2----|
D |----------|--2--2--2---|--------0----------------|---2----------------|
A |----------|------------|-------------------------|---4----------------|
E |----------|--0---------|-------------------------|--------------------|

e |-5-4-5--2-4--0--|
B |-2------4----1--|
G |-2------2----0--|     X2
D |----------------|
A |--------2-------|
E |-2-----------0--|


e|-------------0---0--|------------2---0-|-----------------------|
B|-----------2--2-----|----------0---0---|-----------------------|
G|--------------------|------------------|---------------2-------|
D|---2----2-----------|---4-2--2---------|-2-4-2-4-2-0-------0---|
A|-4---4--0--------0--|--4---------------|-------------4---4-----|
E|--------------------|--------4---------|-------3-----------2---|

                                                     harm          
e|---0-------------|--------------------|-------------12----5--||
B|-3---3-2---2---2-|-2-3-2--0----0---0--|--0-------------------||
G|-----------------|--------------------|----2-1-2-------------||
D|---------2---2---|-----------2---2----|----------------------||
A|-------0---------|--------------------|--------0-------------||
E|-----------------|--------0-----------|----------------------||



Tap to rate this tab
# A B C D E F G H I J K L M N O P Q R S T U V W X Y Z