Song name
# A B C D E F G H I J K L M N O P Q R S T U V W X Y Z

Luis Vargas - Volvio El Dolor tab

  this is another classic this song is played with capo on six


        6 5 4  3  2  1
F#        (x-x-x-11-11-9)||
C#        (x-x-x-10-9-9)-||
D#m       (x-x-x-11-11-11||
D#m II     (x-x-x-8-7-6)-||
B          (x-x-x-8-7-7)-||

Intro*:with delay pedal
1E||--------------6------6~--6-7-9-7^6^7-----------------------||
2B||-------6-7-9---7-9---------------------9-7-6-6^9-----------||
3G||--6-8------------------------------------------------------||
4D||-----------------------------------------------------------||
5A||-----------------------------------------------------------||
6E||-----------------------------------------------------------||

1E||---6-7-7^6-----------------------------6-------------------------------||
2B||-9-----------9-7-6-7-6---6^7~---7-9---9-7-6^7^6------------------------||
3G||--------------------------8------------------------------8-7-7^8~------||
4D||-----------------------------------------------------------------------||
5A||-----------------------------------------------------------------------||
6E||-----------------------------------------------------------------------||

           *off    |--rapido-------------------------||
1E||--11~------14-11-9-------------------------------||
2B||--11~---------------11---------------------------||
3G||--11~------------------11-11---------------------||
4D||-------------------------------------------------||
5A||-------------------------------------------------||
6E||-------------------------------------------------||

F#                                       C#
Me mandaron una carta mujer, y yo la recibi
             B                       C#
no la quise leer, porque alli conprendi
                       D#m    F#
que en tu a mi me era infiel
                                               C#
Que desean esos renglones de ti, no te puedo desir
                    B                    C#
pero hay halgo que ser, que tu vivias por el
              D#m
y yo moria por ti
B                C#                     D#m
yo soņaba con tenerte en ti mis brazos lenta
B                     C#                  D#m
con llevarte hasta el altar y hacerte mi mujer
B            C#                      D#m
dibujaba tu figura entre el mar y la arena
B                 D#m II             C# II
y hoy todas mis iluciones ya no pueden ser
F#                    C#
el dolor, de un dia de mi se fue
           B             D#m  F#
hoy volvio y yo no lo accepte
                                    C#
lo que paso con mi vida, no se lo deseo a nadie
                B                           D#m II
solo vivia de mentira, de una forma inexplicable

usar el intro para el solo

F#                                                 C#
si adentro el se aprovecha de ti, no le guardes rencor
                 B
de lo mismo hago yo
             C#                    D#m
te deseo lo mejor, para que seas feliz
B                C#                 D#m
el disfrutara solo con tenerte a su lado
B                      C#                 D#m
con besarte tus labios sin mirar tus ojos bien
B                     C#              D#m
y cuando se siente debil y muy enamorado
B                   D#m II                C#   F#
nunca se te ocurra hacerle lo que a mi tambien
                     C#
el dolor, de un dia de mi se fue
       B                    D#m  F#
hoy volvio, y yo no lo accepte
                    C#
porque yo, ahora puedo vencer
      B                    * con final
el rencor con mi nuevo querer.

Final:
          D#m II                     pausa
1E||-----6-7--6^7^6------------------------------6-------6--------||
2B||---7-----------------9-7-6-------------6-7-9----7-9-----------||
3G||--8-------------------------8~-----6-8------------------------||
4D||--------------------------------------------------------------||
5A||--------------------------------------------------------------||
6E||--------------------------------------------------------------||


www.luisvargas.com
Tap to rate this tab
# A B C D E F G H I J K L M N O P Q R S T U V W X Y Z