Song name
# A B C D E F G H I J K L M N O P Q R S T U V W X Y Z

Luke Kaufman - Rank Riders Anthem tab

drop D tunning (DADGBE)

Intro & Verse
light distortion
palm muted
e|-------------------------------------------------------------------------|
B|-------------------------------------------------------------------------|
G|-------------------------------------------------------------------------|
D|-------------------------------------------------------------------------|
A|--0-0-0----0-0--0-0-0----0-0--0-0-0----0-0--0-0-0----0-0--0-0-0----0-0---|
D|--0-3-0----0-3--0-3-0----0-3--0-3-0----0-3--0-3-0----0-3--0-3-0----0-3---|



Chorus
distortion
e|-------------------------------------------------------------------------|
B|-------------------------------------------------------------------------|
G|-------------------------------------------------------------------------|
D|--0-0-0-0-5-0-5-0-5-5-7-7-7----------------------------------------------|
A|--0-0-0-0-5-0-5-0-5-5-7-7-7----------------------------------------------|
E|--0-0-0-0-5-0-5-0-5-5-7-7-7----------------------------------------------|
Tap to rate this tab
 
# A B C D E F G H I J K L M N O P Q R S T U V W X Y Z