Song name
# A B C D E F G H I J K L M N O P Q R S T U V W X Y Z

Lummox - Lummox tab

from natural born swillers

riff 1
|-----------------|----------|
|-----------------|----------|
|-----------------|----------|
|---------7p5p0---|----------|
|-7-77-77-------7-|-8--8--8--|
|-5-55-55-------5-|-6--6--6--|


riff 2
|---------------|------------------|
|---------------|------------------|
|---------------|------------------|
|---------5-7-5-|-8-8-8-8-11-11-11-|
|-7-77-77-3-5-3-|-6-6-6-6--9--9--9-|
|-5-55-55-------|------------------|


riff 3
|-----------------------------------------------------------------|
|-----------------------------------------------------------------|
|---------7p5p0-----------7p5p0-----------7p5p0---6-66-66-6-66-66-|
|-2-22-22-------7-5-55-55-------7-8-88-88-------7-4-44-44-4-44-44-|
|-0-00-00-------5-3-33-33-------5-6-66-66-------5-----------------|
|-----------------------------------------------------------------|


http://www.discogs.com/Lummox-Natural-Born-Swillers/release/1611685
Tap to rate this tab
# A B C D E F G H I J K L M N O P Q R S T U V W X Y Z