Song name
# A B C D E F G H I J K L M N O P Q R S T U V W X Y Z

Lunatic Soul - Out On A Limb tab

[Riff 1]
e|----------------------------------------------------------------------|
B|--------5-----------5-------------------------------------------------|
G|----8-----8-----8-----8-----------------------------------------------|
D|--6---6-----5-6---6-----5---------------------------------------------|
A|----------------------------------------------------------------------|
E|----------------------------------------------------------------------|


I don't know what I become
Floating softly
Flying up
Like there's no more gravity
Body and mind
Different things

I don't know what I become
But I feel so good this time
From far-off I hear your cry
Floating softly
Split in two
I'm flying high

[Riff 2]
e|-----------------------------------------------------------------------|
B|-----------------------------------------------------------------------|
G|-----------------------------------------------------------------------|
D|-----------------------------------------------------------------------|
A|-----------------------------------------------------------------------|
E|--2-4-4-2-4--2-4-4-2-5--2-4-4-2-4--2-4--2-5----------------------------|
            *          *          *    *    *
        slightly bend these notes half tone up (or a bit less)


[Crying riff]
e|----------------------------------------------------------------------|
B|----------------------------------------------------------------------|
G|--------13----11----------------13----11------------------------------|
D|-----13----13----13----13----13----13----13-----13--------------------|
A|--11----------------11----11----------------11------------------------|
E|----------------------------------------------------------------------|

e|----------------------------------------------------------------------|
B|--------12----12----------------12----12------------------------------|
G|-----------13----13----13----------13----13----13---------------------|
D|-----13-------------13-------13-------------13------------------------|
A|--11----------------------11------------------------------------------|
E|----------------------------------------------------------------------|


[Solo]
e|----------------------------------------------------------------------|
B|----------------------------------------------------------------------|
G|-----------------------11-11-11-11s8-8-8-8s5-5-5-5s-------------------|
D|--6--6-6-6-7--6--6-6--------------------------------6-6-6-------------|
A|----------------------------------------------------------------------|
E|----------------------------------------------------------------------|
Tap to rate this tab
# A B C D E F G H I J K L M N O P Q R S T U V W X Y Z