Song name
# A B C D E F G H I J K L M N O P Q R S T U V W X Y Z

Lungfish - Constellations tab

Artist: Lungfish
Song: "Constellations"
Album: Sound in Time (1996)

http://www.dischord.com/band/lungfish

Drop-D tuning: DADGBE

Riff I:
Guitar
e|------------------------------------------------|
B|------------------------------------------------|
G|------------------------------------------------|
D|-------0-----------0-----------0----------------|
A|----5-----------5-----------5-----------9-----9-|
D|-3-----------3-----------3----------/7-----7----|
+
e|------------------------------------|
B|------------------------------------|
G|-------------------------------0----|
D|-------0-----------0----------------|
A|----5-----------5-----------9-------|
D|-3-----------3----------/7----------|


Riff II:
e|------------------------------------------------|
B|------------------------------------------------|
G|------------------------------------------------|
D|-------0-----------0-----------------------0----|
A|----7-----------7-----------9-----9-----7-------|
D|-5-----------5----------/7-----7-----5----------|


End on F/D
e|---------------|
B|---------------|
G|---------------|
D|-0-------------|
A|---------------|
D|-3-------------|


That's it.  Just follow along with the track for the structure; it's very repetitive and
very simple.  I plan on submitting the rest of the songs from Sound in Time in the near
future.  Please feel free to leave any comments, questions, requests, etc.  Cheers!
-Bennyshambles78-
Tap to rate this tab
 
# A B C D E F G H I J K L M N O P Q R S T U V W X Y Z