Song name
# A B C D E F G H I J K L M N O P Q R S T U V W X Y Z

Lurkers - Jenny tab

JENNY (THE LURKERS)
 
 
[C#  B C# G#] x2
[C# B C# B D#]
 
G#             B
Jenny said the love would grow
F#            C#
As we kept on dancing slow
G#              B
Couldnít try to disagree
F#             C#
Cos she was so close to me
 
         B
And itís oh my, my, oh my, oh my
  G#
I canít forget her hazel eyes
B
Oh ya, ya, oh ya, oh ya
    C#
Without her I would die
B    C#   G#
Die, die, die
C# B  C# G#
La la-la la
 
[C# B C# B D#]
 
Jenny led a double life
Killed a girl with knife
And daddy had to pay the bail
Said I led her off the rails
 
Oh my, my, oh my, oh my
I canít forget her hazel eyes
Oh ya, ya, oh ya, oh ya
Without her I would die
Die, die, die
La la-la la
 
[C# B C# B D#]
 
    G#                           B
e ----------------6-6-6-------------|
B --9-6---6---6-9-------9----9-6----|
G ------8---8--------------------8--|
D ----------------------------------|
A ----------------------------------|
E ----------------------------------|
 
    F#                      C# 
e --7-7-7-6-6------------------|
B ------------9-6---6-6b7-6----|
G ----------------8---------6--|
D -----------------------------|
A -----------------------------|
E -----------------------------|
 
    G#                                        B
e --16-14b15-16-16-16-21-16-16-16----16-16-16-16b18---|
B ----------------------------------------------------|
G ----------------------------------------------------|
D ----------------------------------------------------|
A ----------------------------------------------------|
E ----------------------------------------------------|
    F#                                C#
 
e -------------18p17p16-16--------------------|
B --14-12-14---------------19p18p16-----------|
G ----------------------------------18-16-18--|
D --------------------------------------------|
A --------------------------------------------|
E --------------------------------------------|
 
Jennyís just a number now
Sheís gone away but still somehow
Think about her everyday
Now that sheís been put away
 
And itís oh my, my, oh my, oh my
I canít forget her hazel eyes
Oh ya, ya, oh ya, oh ya
Without her I would die
Die, die, die
 
Oh my, my, oh my, oh my
I canít forget her hazel eyes
Oh ya, ya, oh ya, oh ya
Without her I would die
Die, die, die
 
Oh my, my, oh my, oh my
I canít forget her hazel eyes
Oh ya, ya, oh ya, oh ya
Without her I would die
Die, die, die
La la-la la
 
[C# B C# B D#]
 
Woo!
 
G#
Tap to rate this tab
# A B C D E F G H I J K L M N O P Q R S T U V W X Y Z