Guitaretab - guitar tabs
Song name
# A B C D E F G H I J K L M N O P Q R S T U V W X Y Z

Luther Vandross - Love The One Youre With tab

“Love The One You’re With”
Artist:Luther Vandross

Tabbed by:Brad Chamberlain


Intro/Verse:(00:42)*Keyboard arranged for guitar*
e|-------------------------|
B|-10--10--8-------6--6--5-|
G|-10--10--9-------7--7--5-| Repeat at various times through out
D|-10--10--10------7--7--5-| the song.
A|-------------------------|
E|-------------------------|
[ Tab from: http://www.guitaretab.com/l/luther-vandross/148669.html ]
Background Guitar:(00:42)
             .  .      .   .   .  .  .  .
e|-10/--12--10-10-12--10--10--10-10-10-10-|
B|-10/--12--10-10-12--10--10--10-10-10-10-|
G|----------------------------------------| Repeat until after
D|----------------------------------------| the Chorus.
A|----------------------------------------|
E|----------------------------------------|

Background Guitar After Chorus:(02:27)
           .  .      .   .   .  .  .  .
e|-10h12--12-12-12--10--10--10-10-10-10-|
B|-10h12--12-12-12--10--10--10-10-10-10-|
G|--------------------------------------|
D|--------------------------------------|
A|--------------------------------------|
E|--------------------------------------|
        . .    .  .  . . . .
e|-6h8--8-8-8--6--6--6-6-6-6-|
B|-6h8--8-8-8--6--6--6-6-6-6-|
G|---------------------------| End of background guitar after
D|---------------------------| Chorus.
A|---------------------------|
E|---------------------------|

Code:
.=Palm-mute
h=Hammer-on
Related for Love The One Youre With tab