Song name
# A B C D E F G H I J K L M N O P Q R S T U V W X Y Z

Luxus Leverpostei - Plastisk Kirurgi chords

Highlighted       Show chord diagrams
Vel jeg kledde meg naken for et ukeblad,
	D7			G
det er slik kjente folk tjener penger i dag.
    Hm			   G
Jeg prøvde meg for Playboy og i Vi Menn,
	A			   D
men jeg hadde ingen bryster å vise frem.

   D		    Dmaj7
Så nå vil jeg ta en kjønnsoperasjon,
       D7                 G
for da tjener jeg over en million,
        Hm
på hvert bilde som blir tatt,
         G		A	    D
snart er kroppen min en nasjonal skatt.

Ref:
		Em		     C
For jeg vil tjene penger på kroppen min,
	  D			      G
med litt plastisk kirurgi så blir den fin,
	  Em	        C
vi kapper penisen av og lager en vagina,
    D			G
for leger er så flinke idag.

Så nå reiser jeg rundt som ei luxus hore,
selv om jeg egentlig heter Per Tore,
jeg gir vel faen for betalinga er bra
og kundene får det dem vil ha.

Jeg kan by på skikkelige saker,
mye bedre en både kuk og kaker,
vasser du i penger, har jeg alt det du trenger,
du slipper å onanere noe lenger.

Ref:
For jeg vil tjene penger på kroppen min,
med litt plastisk kirurgi så blir den fin,
vi kapper penisen av og lager en vagina,
for leger er så flinke idag.


E||------------------------|-----------------------|--------------------------|
B||------------------------|-----------------------|--------------------------|
G||---7/9-7-7--------------|7-7--------------------|---------------7-7-9-9-9-7|
D||-----------9-9-7-7---7-9|----9-7-7-9-9---4h5-5--|-4-4h5-5-7-9-9------------|
A||------------------------|-----------------------|--------------------------|
E||------------------------|-----------------------|--------------------------|

Piano
E||------------------------|-----------------------|--------------------------|
B||------------------------|-----------------------|--------------------------|
G||--7-7-9-7---6-6-7-6-----|--5-5-7-5---4-4-7-4----|-4-4---7-4----------------|
D||------------------------|-----------------------|-------------7-7-4--------|
A||------------------------|-----------------------|-------------------7-5----|
E||------------------------|-----------------------|--------------------------|

Ref. x2

Ja, hvordan er du får en penis til å bli en vagina?
Ikke si det, jeg har det på tungen.
Hvis du... Hvis du... Eh... Herregud, du må jo fjerne ballan!
        Em                            C                  G
Hvis vi fjerner balla, fjerner balla, blir det en vagina da?
            Em                            C                  G
Ja, hvis vi fjerner balla, fjerner balla, blir det en vagina da?                         
                                  (Vi kapper, kapper, kapper penisen av, vi kapper 
av)
            Em                            C                  G
Ja, hvis vi fjerner balla, fjerner balla, blir det en vagina da?                         
                                  (Vi kapper, kapper, kapper penisen av, vi kapper 
av)
            Em                            C                  G
Ja, hvis vi fjerner balla, fjerner balla, blir det en vagina da?
Tap to rate this tab
 
# A B C D E F G H I J K L M N O P Q R S T U V W X Y Z