Song name
# A B C D E F G H I J K L M N O P Q R S T U V W X Y Z

Lynden David Hall - Do Angels Cry tab

Lynden David Hall:  http://www.music3w.com/mini.asp?artist_id=300316
I have searched high and low for years for Lynden David Hall tabs on the internet and
are none! Which is a travesty. I'm convinced this is the first. (Also my first). I have
spent hours working this beautiful song out from the recording and I have it 99.9% down. 
comments welcome, or email me jamesarpc@hotmail.com

----------------------------------------------------------------------------
	         Do Angels Cry - Lynden David Hall
----------------------------------------------------------------------------
Tabbed by: James Cox (Jamesarpc)
STANDARD TUNING
Chords needed:

     B      Emaj7    Ebmin7   C#min  B open
E   -7-      -7-      -6-     -4-     -2-
B   -7-      -9-      -7-     -5-     -4-
G   -8-      -8-      -6-     -6-     -4-
D   -9-      -9-      -8-     -6-     -4-
A   -9-      -7-      -6-     -4-     -2-
E   -7-      -7-      -6-     -4-     -2-

INTRO:
                  This played over the top of rhythm chords.
Opening lick:    *LEAD RIFF:
E|----------   ||--7-p-6-----------------------------------|
B|----------   ||--------7-4--4/9--7--7/9~-----------------|
G|----------   ||------------------------------------------| x 2
D|----------   ||------------------------------------------|
A|--------2-   ||------------------------------------------|
E|--2-h-4---   ||------------------------------------------|

RHYTHM:JAZZ/SOUL(Listen to recording for timings).
B  -  Emaj7 - Ebmin7 - C#min /// x 2

VERSE

B Emaj7 Ebmin7 C#min
 I wonder do Angels cry?
B      Emaj7 Ebmin7   C#min
 Do they fall asleep to lullabys?
B           Emaj7 Ebmin7 C#min
 And if they break a wing can they still fly?
B       Emaj7 Ebmin7  C#min
 Do they nest in the clouds in the sky?


BRIDGE

**Guitar fill:          ***RIFF 2: (At the end of the first two lines of-
(over the B-open)                  the bridge)
E|-------7---              ||--------------------------------|
B|-----------              ||--------------------------------|
G|-----8-----              ||--------------------------------| x 2
D|-----------              ||--------------------------------|
A|--9--------              ||-------2-h-4--4/6---2-----------|
E|--7--------              ||--2-h-4-------------------------|

**B-open                 C#min         ***(RIFF 2)
 Does a soul return from where it came?
B open               C#min          ***(RIFF 2)
 Will my god even remember my name?
B open                      C#min
 I tried living(?) but it's just not the same
 C#min               Ebmin7  Emaj7
 And I don't want to  be     alone
C#min          Ebmin7  Emaj7    (slide down)
 As a spirit of flesh and bone


Guitar 1: *LEAD RIFF
Guitar 2: B  -  Emaj7 - Ebmin7 - C#min /// x 2

 I wonder...

VERSE

B Emaj7 Ebmin7 C#min
 I wonder is Heaven fair?
B        Emaj7 Ebmin7    C#min
 Will I be free to love whoever I care?
B         Emaj7 Ebmin7     C#min
 Is it against the rules to love somebody to death?
B         Emaj7 Ebmin7    C#min
 What will I do if there is no room left?

BRIDGE:(as above)

 Does a soul return from where it came?
 Will my god even remember my name?
 I tried living but it's just not the same
 And I don't want to be alone
 As a spirit of flesh and bone

Guitar 1: *LEAD RIFF
Guitar 2: B  -  Emaj7 - Ebmin7 - C#min /// x 4
 I wonder...
 Ah, do...
 Do Angels cry?

BRIDGE: (as above - Except riff 2*** is played after 3rd line aswell)

 Does a soul return from where it came?
 Will my god even remember my name?
 I tried living but it's just not the same
 And I don't want to be alone
 As a spirit of flesh and bone

Talking to the walls babe...

Guitar 1: *LEAD RIFF
Guitar 2: B  -  Emaj7 - Ebmin7 - C#min /// x 6
 I wonder why...
 Do angels cry?

OUTRO:
RHYTHM: B ///  x 4 (over outro riff)

OUTRO RIFF:
    ||--16-p-14-14-14--11-11-p-9-9-9--7-7-7--|
    ||---------------------------------------|
    ||---------------------------------------| x 4
    ||---------------------------------------|
    ||---------------------------------------|
    ||---------------------------------------|


    B  Bend
    R  Release
    /  Slide up
    \  Slide down
    H  Hammer-on
    P  Pull-off
    ~  Vibrato
    +  Harmonic
    x  Mute note
   (.  Pause


----------------------------------------------------------------------------
	         Do Angels Cry - Lynden David Hall
----------------------------------------------------------------------------


 I wonder do Angels cry?
 Do they fall asleep to lullabys?
 And if they break a wing can they still fly?
 Do they nest in the clouds in the sky?

 Does a soul return from where it came?
 Will my god even remember my name?
 I tried living(?)but it's just not the same
 And I don't want to be alone
 As a spirit of flesh and bone

 I wonder...

 I wonder is Heaven fair?
 Will I be free to love whoever I care?
 Is it against the rules to love somebody to death?
 What will I do if there is no room left?

 Does a soul return from where it came?
 Will my god even remember my name?
 I tried living(?)but it's just not the same
 And I don't want to be alone
 As a spirit of flesh and bone

 I wonder...
 Ah, do...
 Do Angels cry?

 Does a soul return from where it came?
 Will my god even remember my name?
 I tried living(?)but it's just not the same
 And I don't want to be alone
 As a spirit of flesh and bone

Talking to the walls babe...

I wonder why...
Do angels cry?
Do angels cry?
Tap to rate this tab
 
# A B C D E F G H I J K L M N O P Q R S T U V W X Y Z