Guitaretab - guitar tabs
Song name
# A B C D E F G H I J K L M N O P Q R S T U V W X Y Z

Lynyrd Skynyrd - Poison Whiskey tab

Band: Lynyrd Skynyrd
Song: Poison Whiskey
Album: Pronounced Lehínerd Skinínerd

h = hammer on
p = pull off
b = full bend
b* = half bend
r = release bend
x = mute
/ = slide up
\ = slide down
~ = vibrato


(Intro)

e|-------------------------------------------------|
B|-------------3------x--x--x-----5---3------------|
G|-------------3h4----x--x--x-----5---3h4~~~~------|
D|--5----x--x------------------5-------------------|
A|--5----x--x--------------------------------------|
E|-------------------------------------------------|

e|-------------------------------------------------|
B|-------------3------x--x--x-----5---3------------|
G|-------------3h4----x--x--x-----5---3h4~~~~------|
D|--5----x--x------------------5-------------------|
A|--5----x--x--------------------------------------|
E|-------------------------------------------------|

e|-------------------------------------------------|
B|-------------3------x--x--x-----5---3------------|
G|-------------3h4----x--x--x-----5---3h4~~~~------|
D|--5----x--x------------------5-------------------|
A|--5----x--x--------------------------------------|
E|-------------------------------------------------|

e|-------------------------------------------------|
B|-------------3------x--x--x-----5---3------------|
G|-------------3h4----x--x--x-----5---3h4~~~~------|
D|--5----x--x------------------5-------------------|
A|--5----x--x--------------------------------------|
E|-------------------------------------------------|


(Rhythm for Intro Guitar Solo)

e|-------------------------------------------------|
B|-------------------------------------------------|
G|--8--------7-------------------------------------|
D|--8--------7-------------------------------------|
A|--6--------5--------3------------3---------------|
E|----------------------0--1--2--3---0--1--2--3----|

e|-------------------------------------------------|
B|-------------------------------------------------|
G|--8--------7-------------------------------------|
D|--8--------7-------------------------------------|
A|--6--------5-------------------------------------|
E|-------------------------------------------------|


(Intro Guitar Solo)

e|-------------------------------------------------|
B|---------15--------------------------------------|
G|--15b--------15-----------------------15---------|
D|-------------------17p15---17--15/17------15--17-|
A|-------------------------------------------------|
E|-------------------------------------------------|

e|-------------------------------------------------|
B|-------------------------------------------------|
G|----8-----8--------7-----5-----------------------|
D|------8-----8--------7-----7---------------------|
A|--6-----6--------5-----5-------------------------|
E|-------------------------------------------------|

e|-------------------------------------------------|
B|-------------3------x--x--x-----5---3------------|
G|-------------3h4----x--x--x-----5---3h4----------|
D|--5----x--x------------------5-----------5p3-5---|
A|--5----x--x--------------------------------------|
E|-------------------------------------------------|

e|-------------------------------------------------|
B|-------------------------------------------------|
G|--15b~~~~~~------------------/19\----------------|
D|-------------------------------------------------|
A|-------------------------------------------------|
E|-------------------------------------------------|


(Verse 1)

e|-------------------------------------------------|
B|-------------3------x--x--x-----5---3------------|
G|-------------3h4----x--x--x-----5---3h4----------|
D|--5----x--x------------------5-----------5p3-----|
A|--5----x--x--------------------------------------|
E|-------------------------------------------------|

e|-------------------------------------------------|
B|-------------3------x--x--x-----5---3------------|
G|-------------3h4----x--x--x-----5---3h4----------|
D|--5----x--x------------------5-----------5p3-----|
A|--5----x--x--------------------------------------|
E|-------------------------------------------------|

e|-------------------------------------------------|
B|-------------3------x--x--x-----5---3------------|
G|-------------3h4----x--x--x-----5---3h4----------|
D|--5----x--x------------------5-----------5p3-----|
A|--5----x--x--------------------------------------|
E|-------------------------------------------------|

e|-------------------------------------------------|
B|-------------3------x--x--x-----5---3------------|
G|-------------3h4----x--x--x-----5---3h4----------|
D|--5----x--x------------------5-----------5p3-----|
A|--5----x--x--------------------------------------|
E|-------------------------------------------------|

e|-------------------------------------------------|
B|-------------8------x--x--x------10---8----------|
G|-------------8h9----x--x--x------10---8h9--------|
D|-10----x--x------------------10-----------10p8---|
A|-10----x--x--------------------------------------|
E|-------------------------------------------------|

e|-------------------------------------------------|
B|-------------8------x--x--x--x------10\----------|
G|-------------8h9----x--x--x--x------10\----------|
D|-10----x--x---------------------10---------------|
A|-10----x--x--------------------------------------|
E|-------------------------------------------------|

e|-------------------------------------------------|
B|-------------3------x--x--x-----5---3------------|
G|-------------3h4----x--x--x-----5---3h4----------|
D|--5----x--x------------------5-----------5p3-----|
A|--5----x--x--------------------------------------|
E|-------------------------------------------------|

e|-------------------------------------------------|
B|-------------3------x--x--x-----5---3------------|
G|-------------3h4----x--x--x-----5---3h4----------|
D|--5----x--x------------------5-----------5p3-----|
A|--5----x--x--------------------------------------|
E|-------------------------------------------------|

e|-------------------------------------------------|
B|-------------------------------------------------|
G|--8--------7--------3--5---3--5---3--5---3--5--3-|
D|--8--------7--------3--5---3--5---3--5---3--5--3-|
A|--6--------5-------------------------------------|
E|-------------------------------------------------|

e|-------------------------------------------------|
B|-------------3------x--x--x-----5---3-----------5|
G|-------------3h4----x--x--x-----5---3h4---------5|
D|--5----x--x------------------5-----------5p3-5---|
A|--5----x--x--------------------------------------|
E|-------------------------------------------------|


(Verse 2)

e|-------------------------------------------------|
B|-------------3------x--x--x-----5---3------------|
G|-------------3h4----x--x--x-----5---3h4----------|
D|--5----x--x------------------5-----------5p3-----|
A|--5----x--x--------------------------------------|
E|-------------------------------------------------|

e|-------------------------------------------------|
B|-------------3------x--x--x-----5---3------------|
G|-------------3h4----x--x--x-----5---3h4----------|
D|--5----x--x------------------5-----------5p3-----|
A|--5----x--x--------------------------------------|
E|-------------------------------------------------|

e|-------------------------------------------------|
B|-------------3------x--x--x-----5---3------------|
G|-------------3h4----x--x--x-----5---3h4----------|
D|--5----x--x------------------5-----------5p3-----|
A|--5----x--x--------------------------------------|
E|-------------------------------------------------|

e|-------------------------------------------------|
B|-------------3------x--x--x-----5---3------------|
G|-------------3h4----x--x--x-----5---3h4----------|
D|--5----x--x------------------5-----------5p3-----|
A|--5----x--x--------------------------------------|
E|-------------------------------------------------|

e|-------------------------------------------------|
B|-------------8------x--x--x------10---8----------|
G|-------------8h9----x--x--x------10---8h9--------|
D|-10----x--x------------------10-----------10p8---|
A|-10----x--x--------------------------------------|
E|-------------------------------------------------|

e|-------------------------------------------------|
B|-------------8------x--x--x--x------10\----------|
G|-------------8h9----x--x--x--x------10\----------|
D|-10----x--x---------------------10---------------|
A|-10----x--x--------------------------------------|
E|-------------------------------------------------|
[ Tab from: http://www.guitaretab.com/l/lynyrd-skynyrd/10899.html ]
e|-------------------------------------------------|
B|-------------3------x--x--x-----5---3------------|
G|-------------3h4----x--x--x-----5---3h4----------|
D|--5----x--x------------------5-----------5p3-----|
A|--5----x--x--------------------------------------|
E|-------------------------------------------------|

e|-------------------------------------------------|
B|-------------3------x--x--x-----5---3------------|
G|-------------3h4----x--x--x-----5---3h4----------|
D|--5----x--x------------------5-----------5p3-----|
A|--5----x--x--------------------------------------|
E|-------------------------------------------------|

e|-------------------------------------------------|
B|-------------------------------------------------|
G|--8--------7--------3--5---3--5---3--5---3--5--3-|
D|--8--------7--------3--5---3--5---3--5---3--5--3-|
A|--6--------5-------------------------------------|
E|-------------------------------------------------|


(Guitar Solo)

  Hold bend-------------------------------|
e|-------------------------------------------------|
B|-------------------------------------------------|
G|-5b--5b-5b-5b-5b-5b-5b-5b-5b-5b-5b-5b-5br-3------|
D|-------------------------------------------------|
A|-------------------------------------------------|
E|-------------------------------------------------|
      
e|-------------------------------------------------|
B|--4b-4b~~~~--4br-----4b---4--4b--4b~~~~----------|
G|------------------5------------------------------|
D|-------------------------------------------------|
A|-------------------------------------------------|
E|-------------------------------------------------|

  Hold Bend
e|-------------------------------------------------|
B|----------3-6b---6-6b---6-6b---6-6b---6----------|
G|-5b-5b-5b----------------------------------------|
D|-------------------------------------------------|
A|-------------------------------------------------|
E|-------------------------------------------------|

e|--6-5-6-5-6-5-6-5b---5--3------------------------|
B|-------------------------------------------------|
G|---------------------------5brp3-----------------|
D|---------------------------------5---------------|
A|-------------------------------------------------|
E|-------------------------------------------------|

e|-------------------------------------------------|
B|-------------------------------------------------|
G|-------------------------------------------3-----|
D|-3--5--5--3--5--5--3--5--5--3--5--5--3--5--------|
A|-------------------------------------------------|
E|-------------------------------------------------|
   Gradual Bend
e|-------------------------------------------------|
B|-------------------------------------------------|
G|-3b--3b-3b-3b-3b-3b-3b-3b-3b-3b-3b-3b-3b-3b-3br--|
D|-------------------------------------------------|
A|-------------------------------------------------|
E|-------------------------------------------------|

e|-------------------------------------------------|
B|-------------------------------------------------|
G|--------------------------2b*--2-----------------|
D|--5--3--5----5----5----3----------5--3--5-/--14--|
A|-------------------------------------------------|
E|-------------------------------------------------|

e|-------------------------------------------------|
B|------------------15b---15--13-------------------|
G|----------12--------------------14--12--14--12---|
D|--14--14------14---------------------------------|
A|-------------------------------------------------|
E|-------------------------------------------------|

e|-------------------------------------------------|
B|-------------------------------------------------|
G|--x--x--x--x--\---x---\---x---\---x---\----------|
D|--x--x--x--x--\---x---\---x---\---x---\----------|
A|-------------------------------------------------|
E|-------------------------------------------------|

e|-------------------------------------------------|
B|-------------------------------------------------|
G|--3--5---3--5---3--5---3--5--3-------------------|
D|--3--5---3--5---3--5---3--5--3-------------------|
A|-------------------------------------------------|
E|-------------------------------------------------|

*Piano Solo*

Repeat Rhythm same as verses 


(Verse 3)

e|-------------------------------------------------|
B|-------------3------x--x--x-----5---3------------|
G|-------------3h4----x--x--x-----5---3h4----------|
D|--5----x--x------------------5-----------5p3-----|
A|--5----x--x--------------------------------------|
E|-------------------------------------------------|

e|-------------------------------------------------|
B|-------------3------x--x--x-----5---3------------|
G|-------------3h4----x--x--x-----5---3h4----------|
D|--5----x--x------------------5-----------5p3-----|
A|--5----x--x--------------------------------------|
E|-------------------------------------------------|

e|-------------------------------------------------|
B|-------------3------x--x--x-----5---3------------|
G|-------------3h4----x--x--x-----5---3h4----------|
D|--5----x--x------------------5-----------5p3-----|
A|--5----x--x--------------------------------------|
E|-------------------------------------------------|

e|-------------------------------------------------|
B|-------------3------x--x--x-----5---3------------|
G|-------------3h4----x--x--x-----5---3h4----------|
D|--5----x--x------------------5-----------5p3-----|
A|--5----x--x--------------------------------------|
E|-------------------------------------------------|

e|-------------------------------------------------|
B|-------------8------x--x--x------10---8----------|
G|-------------8h9----x--x--x------10---8h9--------|
D|-10----x--x------------------10-----------10p8---|
A|-10----x--x--------------------------------------|
E|-------------------------------------------------|

e|-------------------------------------------------|
B|-------------8------x--x--x--x------10\----------|
G|-------------8h9----x--x--x--x------10\----------|
D|-10----x--x---------------------10---------------|
A|-10----x--x--------------------------------------|
E|-------------------------------------------------|

e|-------------------------------------------------|
B|-------------3------x--x--x-----5---3------------|
G|-------------3h4----x--x--x-----5---3h4----------|
D|--5----x--x------------------5-----------5p3-----|
A|--5----x--x--------------------------------------|
E|-------------------------------------------------|

e|-------------------------------------------------|
B|-------------3------x--x--x-----5---3------------|
G|-------------3h4----x--x--x-----5---3h4----------|
D|--5----x--x------------------5-----------5p3-----|
A|--5----x--x--------------------------------------|
E|-------------------------------------------------|

e|-------------------------------------------------|
B|-------------------------------------------------|
G|--8--------7-------------------------------------|
D|--8--------7-------------------------------------|
A|--6--------5--------3------------3---------------|
E|----------------------0--1--2--3---0--1--2--3----|

e|-------------------------------------------------|
B|-------------------------------------------------|
G|--8--------7-------------------------------------|
D|--8--------7-------------------------------------|
A|--6--------5-------------------------------------|
E|-------------------------------------------------|

e|-------------------------------------------------|
B|-------------3------x--x--x-----5---3------------|
G|-------------3h4----x--x--x-----5---3h4----------|
D|--5----x--x------------------5-----------5p3-5---|
A|--5----x--x--------------------------------------|
E|-------------------------------------------------|


***END OF SONG***


Lyrics:

(Verse 1)

Daddy was a cajun, baby, rasied on southern land
And so my kinfolks tell me, was a street fightin' man
Well, they rushed him down to see the doctor
"Hey doctor, won't you check his head?"
The only thing that was wrong with him was Johnny Walker's Red
He drank ole poison whiskey till it killed him dead

(Verse 2)

It happened back in the bayou many years ago
Satan came to take him and he did it real slow
Well, they rushed him back to see the doctor
The doctor just shook his head 
"Twenty years of rotgut whiskey done killed this poor man dead"
He drank ole poison whiskey till it killed him dead

(Verse 3)

Take a tip from me people, brothers, can't you see?
Ain't no future in ole poison whiskey
They're gonna rush you down to see the doctor 
The doctor's gonna check your head
The only thing he's gonna tel ya,
"Stop drinking Johnny Walker's Red"
Don't drink poison whiskey, don't you drink it, boy
Related for Poison Whiskey tab