Song name
# A B C D E F G H I J K L M N O P Q R S T U V W X Y Z

Lynyrd Skynyrd - Double Trouble tab

This song has been played two hundred and seventy two different ways.
My interpretation is as follows. It's a very fast alternate picking
song. And you MUST have the flow and the rhythm of the song totally
in your mind in order to nail each note without losing rhythm. Try
it more than once before you say forget it.

Main Riff:

------------------------------------------------------|
----------(pinch.the.five.)---------------------------|
--2---0---5-----2-x-2---2---2---0-----2------x-02020--|
---2---0---------------------2---0----2---------------|
-0------3-----0------------0----------0---------------|
----3-----------------3-------3----3------------------|

Chorus:

---------------------------------------|
---------------6----------------6------|
--------7b--5--5--7~~~--7b--5--5--7--5-|
--------7b--5-----7~~~--7b--5-----7--5-|
0-345-----------------5----------------|
---------------------------------------|

(cont.)

---------------------------------------|
---------------------------------------|
----2--0--5b---2~~~---2--0--5b--2~~~---|
----2--0--5b---2~~~---2--0--5b--2~~~---|
-0-----------------0-------------------|
---------------------------------------|

(cont.)

---------------------------------------------|
-----------------------------------6---------|
---------------------------7---5-------7--5--|
------------5b----------0----0---0---0-------|
----7---5--------7---------------------------|
-0--- 0---0----0-----------------------------|
Tap to rate this tab
# A B C D E F G H I J K L M N O P Q R S T U V W X Y Z