Song name
# A B C D E F G H I J K L M N O P Q R S T U V W X Y Z

Lynyrd Skynyrd - Simple Man tab

hey yall this is my firdt time tabbing but i'm prety sure its right


INTRO/VERSE, PLAYED THROUGH MOST OF THE SONG

E-------------------------------------------------------3----------------------
B-----------1-----------------------------1---------------1--------------------
G------0------0---0--------0--------2-------2-----2----------------------------------
D--------2------2-----0------0---0----2-------2-----2---------------------------------
A-0-2-3----3------------2------2---0----0-------0-----0---------------------------------
E-------------------3-----3-----------------------------------------------------


CHORUS
E----------------------------------------------------------------------------------
B---------------------------------------------------------------------------------
G-------3-3**-----------------------------------------------------------------------
D-------3-3**---------3-3**----------5-5----------5--------------------------------------
A---0-2-5-5**-3/5\3---3-3**--3/5\3---5-5----------5--------------------------------
E---------------------5-5**--------3-7-7--3-0-3-0-7--------------------------------

HEY THIS IS A REAL COOL SONG IF YOU PLAY IT RIGHT I DONT HAVE THE SOLO, BUT IF ANYONE 
HAS THE CORRECT SOLO PLEASE EMAIL ME wesleydon9@hotmail.com
Tap to rate this tab
# A B C D E F G H I J K L M N O P Q R S T U V W X Y Z