Song name
# A B C D E F G H I J K L M N O P Q R S T U V W X Y Z

Lynyrd Skynyrd - Sweet Home Alabama tab

This is one of my favorite songs to play, and I haven't seen anyone get it right so I decided to do the right version that was easy to read and play!!! 


Intro

|------------------|------------------|------------------|
|-------3----------|--------3---------|-----------2------|
|----------2-------|-----------0------|-----------0------|
|-0--0----------0--|------------------|-----------0------|
|------------------|-3p0h3--------3---|-----------0------|
|------------------|------------------|--3p0h3----3------|

|------------------|------------------|------------------|
|------------------|-------3----------|---------3--------|
|------------------|----------2-------|------------0-----|
|-----0h2p0--------|-0--0--------0----|------------------|
|0-0h2------0h2----|------------------|--3p0h3--------3--|
|------------------|------------------|------------------|

|------------------|------------------|------------------|
|---------2--------|------------------|--------3---------|
|---------0--------|0-0-2-0-0-4-0-0-5b|-----------2------|
|---------0--------|------------------|--0--0----------0-|
|---------0--------|------------------|------------------|
|-3p0h3---3--------|------------------|------------------|

|------------------|------------------|------------------|
|--------3---------|-----------2------|------------------|
|-----------0------|-----------0------|------------------|
|------------------|-----------0------|-----0h2p0--------|
|-3p0h3--------3---|-----------0------|0-0h2------0h2----|
|------------------|--3p0h3----3------|------------------|

|------------------|------------------|------------------|
|-------3----------|--------3---------|---------3------3-|
|----------2-------|-----------0------|---------0------0-|
|-0--0----------0--|------------------|---------0------0-|
|------------------|-3p0h3--------3---|---------2------2-|
|------------------|------------------|--3p0h3--3--3-3-3-|

Chours: (add scratching for effect) 
|--------------|--------------|-------------|-------------|
|--------------|--------------|-------------|-------------|
|--7--7--------|--5--5--------|-------------|-------------|
|--7--7--------|--5--5--------|--5--5----5--|-----0h2p0---|
|--5--5--------|--3--3--------|--5--5----5--|0-0h2-----0h2|
|--------------|--------------|--3--3----3--|-------------|

|--------------|--------------|-------------|----------------|
|--------------|--------------|-------------|----------------|
|--7--7--------|--5--5--------|-------------|----0----0----0-|
|--7--7--------|--5--5--------|--5--5----5--|-0h2--0h2--0h2--|
|--5--5--------|--3--3--------|--5--5----5--|----------------|
|--------------|--------------|--3--3----3--|----------------|

|--------------|--------------|-------------|
|--------------|--------------|-------------|
|--7--7--------|--5--5--------|-------------|
|--7--7--------|--5--5--------|--5--5----5--|
|--5--5--------|--3--3--------|--5--5----5--|
|--------------|--------------|--3--3----3--|

This is the guitar harmony riff:
|------------------|------------------|------------------| (repeat that once more) 
|------------------|------------------|------------------|
|----------7----7--|------------5--5--|------------------|
|----------7----7--|------------5--5--|----------5---5---|
|-7-8-9------------|---5-6-7----------|----------5---5---|
|------------------|------------------|---5-6-7----------|

Solo 1: 


|-15b-15-14-------------------------------------------------------------|
|-----------15-15-----15-12-13------------------------------------------|
|------------------------------15v-14-12-14----12----12-14--------------|
|-------------------------------------------14-------------14-----------|
|-----------------------------------------------------------------------|
|-----------------------------------------------------------------------|

|-----3-5-3-5b-------3-5--3-----5-5b-5-3----------|
|-3h5----------3-3h5----5----------------5-4-5----|
|-------------------------------------------------|
|-------------------------------------------------|
|-------------------------------------------------|
|-------------------------------------------------|

|-3-----------------------------------------------|
|---5-4-5-4p0-------------------------------------|
|-------------0(Whammy Dip)-----------------------|
|-------------------------------------------------|
|-------------------------------------------------|


|------------------|------------------|------------------|
|-------3----------|--------3---------|-----------2------|
|----------2-------|-----------0------|-----------0------|
|-0--0----------0--|------------------|-----------0------|
|------------------|-3p0h3--------3---|-----------0------|
|------------------|------------------|--3p0h3----3------|

|------------------|------------------|------------------|
|------------------|-------3----------|---------3--------|
|------------------|----------2-------|------------0-----|
|-----0h2p0--------|-0--0--------0----|------------------|
|0-0h2------0h2----|------------------|--3p0h3--------3--|
|------------------|------------------|------------------|

Chours: (add scratching for effect) 
|--------------|--------------|-------------|-------------|
|--------------|--------------|-------------|-------------|
|--7--7--------|--5--5--------|-------------|-------------|
|--7--7--------|--5--5--------|--5--5----5--|-----0h2p0---|
|--5--5--------|--3--3--------|--5--5----5--|0-0h2-----0h2|
|--------------|--------------|--3--3----3--|-------------|

|--------------|--------------|-------------|----------------|
|--------------|--------------|-------------|----------------|
|--7--7--------|--5--5--------|-------------|----0----0----0-|
|--7--7--------|--5--5--------|--5--5----5--|-0h2--0h2--0h2--|
|--5--5--------|--3--3--------|--5--5----5--|----------------|
|--------------|--------------|--3--3----3--|----------------|

|--------------|--------------|-------------|
|--------------|--------------|-------------|
|--7--7--------|--5--5--------|-------------|
|--7--7--------|--5--5--------|--5--5----5--|
|--5--5--------|--3--3--------|--5--5----5--|
|--------------|--------------|--3--3----3--|

Solo 2: 

 |---------------------------------------------------------------|
 |---------------------------------------------------------------|
 |---------------------------------------------------------------|
 |--------5-----5--7--(8)-(8)-(8)-(8)-(9)-(8)--7--(9)--7--(9)---5|
 |--5--7-----7---------------------------------------------------|
 |---------------------------------------------------------------|     
      
 |---------------------------------------------------------------|
 |-----------------------------8----8--10--11-(12)-(13)-(14)-----|
 |----------------------7-/-9-----9------------------------------|
 |--5-----5---5---5--5-------------------------------------------|
 |-----7---------------------------------------------------------|
 |---------------------------------------------------------------|
            

 |--------------------------------------------------------------|
 |--8-----8-----------------------------------------------------|
 |-----9-----9--7--7--7--7--X--7----------9--7-----9---12--9----|
 |----------------------------------9--9--------9---------------|
 |--------------------------------------------------------------|
 |--------------------------------------------------------------| 

 |--------------------------------------------------------------|
 |--------------------------------------------------------------|
 |--12--14--12--9---12--17--12--9---12--17--12--9---12--16--12--|
 |--------------------------------------------------------------|
 |--------------------------------------------------------------|
 |--------------------------------------------------------------| 

 |--------------------------------------------------------------|
 |--------------------------------------------------------------|
 |-9--12--16--12-9----12--17--12--9---12--17--12--9--12--17--12-|
 |--------------------------------------------------------------|
 |--------------------------------------------------------------|
 |--------------------------------------------------------------|


 |--------------------------------------------------------------|
 |--------------------------------------------------------------|
 |--9-12--17--12---9--12--14--12---9--12--14--12--9--12--17--12-|
 |--------------------------------------------------------------|
 |--------------------------------------------------------------|
 |--------------------------------------------------------------| 
 
 |--------------------------------------------------------------|
 |--------------------------------------------------------------|
 |---9--12--17--12---9--12--17--12---9--12---9------------12----|
 |-----------------------------------------------8---9----------|
 |--------------------------------------------------------------|
 |--------------------------------------------------------------|
 
 |----------------------------------------------12------12--15--|
  ------------------------------12------12--15------15----------|
 |--------------12------12--14------14--------------------------|
 |--14--12--14------14------------------------------------------|
 |--------------------------------------------------------------|
 |--------------------------------------------------------------|
 
 |--15--15--15--15--15--15--15--15--15--15--15--15--15--15--15--|
 |--------------------------------------------------------------|
 |--------------------------------------------------------------|
 |--------------------------------------------------------------|
 |--------------------------------------------------------------|
 |--------------------------------------------------------------|


Chours: (add scratching for effect) 
|--------------|--------------|-------------|-------------|
|--------------|--------------|-------------|-------------|
|--7--7--------|--5--5--------|-------------|-------------|
|--7--7--------|--5--5--------|--5--5----5--|-----0h2p0---|
|--5--5--------|--3--3--------|--5--5----5--|0-0h2-----0h2|
|--------------|--------------|--3--3----3--|-------------|

|--------------|--------------|-------------|----------------|
|--------------|--------------|-------------|----------------|
|--7--7--------|--5--5--------|-------------|----0----0----0-|
|--7--7--------|--5--5--------|--5--5----5--|-0h2--0h2--0h2--|
|--5--5--------|--3--3--------|--5--5----5--|----------------|
|--------------|--------------|--3--3----3--|----------------|

|--------------|--------------|-------------|
|--------------|--------------|-------------|
|--7--7--------|--5--5--------|-------------|
|--7--7--------|--5--5--------|--5--5----5--|
|--5--5--------|--3--3--------|--5--5----5--|
|--------------|--------------|--3--3----3--|



That Took a very long time. anyways enjoy this tank


Tap to rate this tab
 
# A B C D E F G H I J K L M N O P Q R S T U V W X Y Z