Song name
# A B C D E F G H I J K L M N O P Q R S T U V W X Y Z

Lynyrd Skynyrd - Mississippi Kid tab

Not completely correct but it's close enough. Doubt it's in the correct key by the way.

Intro

E||--12-12-12-12-12-12-12-12-12-12-----------------|
B||--------------------------------15-12-----------|
G||--------------------------------------15-12-12--|
D||------------------------------------------------|
A||------------------------------------------------|
E||------------------------------------------------|

--12--10--12---15-12--------------------|
--12--10--12---------15-12--------------|
---------------------------15-14-12-12--|
----------------------------------------|
----------------------------------------|
----------------------------------------|

The rest of the song is just 12 bar blues in whatever key. Assuming it's in the key of 
except you play the B for two bars and don't play the A at the 10th bar. I play the 
like this:

  E      A  B

--12---------------------||
--12----14--16-----------||
--13----14--16-----------||
--------14--16-----------||
-------------------------||
-------------------------||


Just in case you want to play it on the banjo:
D||--14-14-14-14-14-14-14-14-14-14-----------------|
B||--------------------------------15--------------|
G||-----------------------------------16-15--------|
D||-----------------------------------------17-17--|
G||------------------------------------------------|

--14--12--14---17-14-12-----------------|
--14--12--14------------14-13-----------|
------------------------------14-12-12--|
----------------------------------------|
----------------------------------------|

   E  A  B
|-14--14-16||
|-12--14-16||
|-13--14-16||
|----------||
|----------||
Tap to rate this tab
# A B C D E F G H I J K L M N O P Q R S T U V W X Y Z