Lynyrd Skynyrd - Southern Ways tab

Southern Ways
Lynyrd Skynyrd

Intro:

e------------0h2-0-0-----------------|
B--------------------3-0-3-3---3-3-3-|
G--------------------------2h4-2-0-2-|
D------0--0--------------------------|
A---0h2------------------------------|
E------------------------------------|

e------------0h2-0-0-----------------|
B--------------------3-0-3-3---3-3-3-|
G--------------------------2h4-2-0-2-|
D------0--0--------------------------|
A---0h2------------------------------|
E------------------------------------|
Tap to rate this tab
 
# A B C D E F G H I J K L M N O P Q R S T U V W X Y Z