Song name
# A B C D E F G H I J K L M N O P Q R S T U V W X Y Z

Mac Demarco - Chamber Of Reflection tab

This song is basically this:

Lead Synth:
E |----14-12-|---------------------|-----------|-12--------------|
B |----------|-12-----12s14s11-----|----12-14--|------14-12------|
G |----------|---------------------|-----------|-----------------|
D |----------|---------------------|-----------|-----------------|
A |----------|---------------------|-----------|-----------------|
E |----------|---------------------|-----------|-----------------|

--------------------------|--------------|--------------|--------|
-12--------12s14s11-------|----------11--|-13-----------|--------|
--------------------------|--------------|----13----13--|-13-----|
--------------------------|--------------|--------------|--------|
--------------------------|--------------|--------------|--------|
--------------------------|--------------|--------------|--------|

Rhythm Synth:
E |--0----|--2----|--0L---|--0----|
B |--1----|--3----|--1L---|--1----|
G |--2----|--4----|--0L---|--0----|
D |--2----|--4----|--2L---|--2----|
A |--0----|--2----|--3L---|--3----|
E |-------|-------|-------|-------|

--0----|--2----|--0L---|--0----|
--1----|--3----|--0L---|--0----|
--2----|--4----|--0L---|--0----|
--2----|--4----|--2L---|--2----|
--0----|--2----|--2L---|--2----|
-------|-------|--0L---|--0----|

Any suggestions are welcome, since I'm not sure if the tab is right.
Tap to rate this tab
# A B C D E F G H I J K L M N O P Q R S T U V W X Y Z