Song name
# A B C D E F G H I J K L M N O P Q R S T U V W X Y Z

Mad At Gravity - Walk Away tab

-------------------------------------------------------------------------------
			     Walk Away - Mad At Gravity 
-------------------------------------------------------------------------------
Tabbed by:TiZzLa
Email:tizzladasizzla@yahoo.com

Tuning: DADGBe
       
Intro-chorus  
e|------------------------------------------------------------|
B|------------------------------------------------------------|
G|--3----6---10---8---13---7---6--10--------------------------|
D|--x----x---x----x---x----x---x---x---8----6---8-------------|
A|--1----4---8----6---11---5---4---8---8----6---8-------------|
D|-------------------------------------8----6---8-------------|

Verse 1- Guitar 1
e|------------------------------------------------------------------|
B|------------------------------------------------------------------|
G|---------5--------------10-------------8--------------------------|
D|------------2---------------8-------------6-------------3---------| 
A|-----2--------2------8--------8------6-------6-----1----1---------|
D|--2---------------8---------------6-------------1-------1---------|

Guitar 2
(grate sting twice between each note)
    .  .  .  .  .  .  .  .  .  .  .   .   .   .    \
e|----------------------------------------------------|
B|----------------------------------------------------|
G|--3--3--1--1--3--3--6--6--8--8--10--10--13--13--15--|
D|----------------------------------------------------|
A|----------------------------------------------------|
D|----------------------------------------------------|

(chorus)

Bridge
e|------------------------------------------|
B|------------------------------------------|
G|------------------------------------------|
D|-------8-----6----4----1------------------|
A|-------8-----6----4----1------------------|
D|-------8-----6----4----1------------------|

Verse 2- Guitar 1 (same as verse 1)

Guitar 2  
(grate each string twice between notes)
    .  .  .  .  .  .  .  .  .  .  .   .   .  .  .  .
e|------------------------------------------------------|
B|------------------------------------------------------|
G|--3--3--1--1--3--3--6--6--8--8--10--10--3--3--1--1----|
D|------------------------------------------------------|
A|------------------------------------------------------|
D|------------------------------------------------------|

    .  .  .   .   .   .   .  .  .  .  .   .   .   .   \
e|-------------------------------------------------------|
B|-------------------------------------------------------|
G|--8--8--10--10--13--13--6--6--8--8--10--10--13--13--15-|
D|-------------------------------------------------------|
A|-------------------------------------------------------|
D|-------------------------------------------------------|


(chorus)

Break

e|--------------------------------------------------------------|
B|--------------------------------------------------------------|
G|-3-3-3----3-3-3---6-6-6----6-6-6------------------------------|
D|-3-3-3----3-3-3---6-6-6----6-6-6----1-1-1--1-1-1--------------|
A|-1-1-1----1-1-1---4-4-4----4-4-4----1-1-1--1-1-1--------------|
D|------------------------------------1-1-1--1-1-1--------------|

e|------------------------------------------------------|
B|------------------------------------------------------|
G|------------------------------------------------------|(x2)
D|--------4-4-4-4-4-4---6-6-6-6-6-6---------------------|
A|--------4-4-4-4-4-4---6-6-6-6-6-6---------------------|
D|--------4-4-4-4-4-4---6-6-6-6-6-6---------------------|



(Bridge)



(4th time through don't hammer 4, hold 3)
        .   .     .   .
e|----------------------------------------------------------|
B|----------------------------------------------------------|
G|--x-x-3--3-x-x-3--3h4-------------------------------------| (x3)
D|----------------------------------------------------------|
A|----------------------------------------------------------|
D|----------------------------------------------------------|

Solo

Guitar 2
e|---6h4-6h4--------4-----------------------------------------------|
B|------------6h4-6---6h4--6h4--------------------------------------|
G|------------------------------------------------------------------|
D|------------------------------------------------------------------| (x3)
A|------------------------------------------------------------------|
D|------------------------------------------------------------------|

Guitar 2
e|------------------------------------------------------------------|
B|------------------------------------------------------------------|
G|---3h1-3h1-------1------------------------------------------------|
D|-----------3h1-3---3h1--3h1---------------------------------------| (x3)
A|------------------------------------------------------------------|
D|------------------------------------------------------------------|


(chorus)


Ending
   . . .    . . .   . . .    . . .    . . .  . . .
e|--------------------------------------------------------------|
B|--------------------------------------------------------------|
G|-3-3-3----3-3-3---6-6-6----6-6-6------------------------------|
D|-3-3-3----3-3-3---6-6-6----6-6-6----1-1-1--1-1-1--------------|
A|-1-1-1----1-1-1---4-4-4----4-4-4----1-1-1--1-1-1--------------|
D|------------------------------------1-1-1--1-1-1--------------|

          . . . . . .   . . . . . .    let ring  
e|-------------------------------------------------------|
B|-------------------------------------------------------|
G|-------------------------------------------------------|
D|--------4-4-4-4-4-4---6-6-6-6-6-6------8---------------|
A|--------4-4-4-4-4-4---6-6-6-6-6-6------8---------------|
D|--------4-4-4-4-4-4---6-6-6-6-6-6------8---------------|

| .   palm mute
| /  slide up
| \  slide down
| h  hammer-on
| p  pull-off
| ~  vibrato
| +  harmonic
| x  Mute note
=============================================================================
Tap to rate this tab
 
# A B C D E F G H I J K L M N O P Q R S T U V W X Y Z