Song name
# A B C D E F G H I J K L M N O P Q R S T U V W X Y Z

Made In Mexico - Yes We Can tab

|---------------------------------|
|---------------------10----------|
|-88888---99999---10--10----------|  x4
|---------------------------------|
|---------------------------------|
|---------------------------------|


|--------------------------------------------|
|--------------------------------------------|
|-xxxxxxxxx-x-xxxxxxxx--x-xx-xx--xxxxxxxxx---|
|--------------------------------------------|
|--------------------------------------------|
|--------------------------------------------|


|---------------------------------|
|---------------------10----------|
|-88888---99999---10--10----------|  x4
|---------------------------------|
|---------------------------------|
|---------------------------------|

12s and 13s

|----------------------------------------|
|--------------------------14------------|
|-1212121212-1313131313-14-14------------|  x4
|----------------------------------------|
|----------------------------------------|
|----------------------------------------|



|--------------------------------------------|
|--------------------------------------------|
|-xxxxxxxxx-x-xxxxxxxx--x-xx-xx--xxxxxxxxx---|
|--------------------------------------------|
|--------------------------------------------|
|--------------------------------------------|
Tap to rate this tab
 
# A B C D E F G H I J K L M N O P Q R S T U V W X Y Z