Song name
# A B C D E F G H I J K L M N O P Q R S T U V W X Y Z

Madeon - Finale tab

----------------------------------------------------------------------------
                                           FINALE - Madeon
----------------------------------------------------------------------------
Tabbed by: Jonny

Tuning: Standard EADGBe


Intro:
e|------------------------------------------------------------------------|
B|------------------------------------------------------------------------|
G|------------------------------------------------------------------------|
D|------------------------------------------------------------------------|
A|-----------------------------------------there's a small dubbed 10p9-10-|
E|--3-3-3-3-3-3-3--repeat throughout-------in the background--------------|
  PM==============


Shortened intro main riff:
e|--------------------------(15--15-13-15 synth in background rising volume---|
B|----------------------------------------------------------------------------|
G|----------------------------------------------------------------------------|
D|-----/12-10--------------x2 then--(12) harmonic-----------------------------|
A|------------10\8-10---------------------------------------------------------|
E|--3-------------------------------------------------------------------------|

Main Riff:
e|----------------------------------------|----------------------------------------|-----------|
B|----------------------------------------|----------------------------------------|-----------|
G|----/12-10-------------------10---------|----/12-10------15-14-12-10-------------|-----------|
D|-----------10\8-10---8-10/12----10-8----|-----------10-8-------------10----12----|--5-5--5-5-|
A|-------------------------------------10-|--10---------------------------------10-|--5-5--5-5-|x2
E|--3-------------------------------------|----------------------------------------|--3-3--3-3-|

There's a harmony of +1 octave if you feel like adding it.

You get the idea, just play about with that riff and after the last time there's all 
sorts of arpeggios but just playing these notes is enough really

e|--------------------15h17h18h20h22--|
B|----------8h10h11-------------------|
G|------------------------------------|
D|---5h7h8----------------------------|
A|------------------------------------|
E|------------------------------------|

Verse:
e|-10-10-10-10--10-10-10-10--10-10-10-10--12-12-12-12----------------------|
B|-11-11-11-11--10-10-10-10--11-11-11-11--13-13-13-13-softly-building------|
G|-------------------------------------------------------------------------|
D|-------------------------------------------------------------------------|
A|-------------------------------------------------------------------------|
E|-------------------------------------------------------------------------|


The synth plays something along the lines of
e|---10-----------|---10------------|---13-----------|---15-----------|
B|------11--------|------10---------|------15--------|------17--------|
G|-12------12--x4-|-12-------10--x4-|-15------15--x4-|-17------17--x4-|
D|----------------|-----------------|----------------|----------------| x2
A|----------------|-----------------|----------------|----------------|
E|----------------|-----------------|----------------|----------------|

If you feel like playing the chords they're:

Gm   Dsus4/A   Bb    C

And that's it the rest of the song just repeats these bits, enjoy.

************************************

| /   slide up
| \   slide down
| h   hammer-on
| p   pull-off
| ~   vibrato
| +   harmonic
| x   Mute note
| b   Bend
| pb  Pre-bend
| br  Bend release
| pbr Pre-bend release
| brb Bend release bend

************************************
Tap to rate this tab
# A B C D E F G H I J K L M N O P Q R S T U V W X Y Z