Guitaretab - guitar tabs
Song name
# A B C D E F G H I J K L M N O P Q R S T U V W X Y Z

Madina Lake - House Of Cards tab

Tapping:
This is similar to hammering, just tap on the string you wish to use in the fret 
you wish to use to make the effect.


E----------------------------------|
G--------3-10-3-11-3-11-3-11-10----|
B----------------------------------|            Use Tapping (X10)
D----------------------------------|
A----------------------------------|
E----------------------------------|

E----------------------------------|
G----------------------------------|
B----------------------------------|             X4
D-7-5-3----------------------------|
A-5-3-1----------------------------|
E----------------------------------|

E----------------------------------|
G--------3-10-3-11-3-11-3-11-10----|
B----------------------------------|            Use Tapping (X6)
D----------------------------------|
A----------------------------------|
E----------------------------------|

E----------------------------------|
G----------------------------------|
B----------------------------------|             X4
D-7-5-3----------------------------|
A-5-3-1----------------------------|
E----------------------------------|

E----------------------------------|
G----------------------------------|
B----------------------------------|             X3
D-5-7-3----------------------------|
A-5-7-3----------------------------|
E----------------------------------|
[ Tab from: http://www.guitaretab.com/m/madina-lake/187991.html ]
E----------------------------------|
G----------------------------------|
B----------------------------------|             Listen to song for rhythm
D----------------------------------|
A-3--------------------------------|
E-3--------------------------------|

E-15-------------------------------|
G-16-------------------------------|
B-17-------------------------------|             Listen to song for rhythm
D-17-------------------------------|        If you find this difficult bar 
A-15-------------------------------|         the 17th fret (1 finger 
E----------------------------------|        across it)

E----------------------------------|
G--------3-10-3-11-3-11-3-11-10----|
B----------------------------------|            Use Tapping (X8)
D----------------------------------|
A----------------------------------|
E----------------------------------|

E----------------------------------|
G----------------------------------|
B----------------------------------|             X6
D-7-5-3----------------------------|
A-5-3-1----------------------------|
E----------------------------------|

E----------------------------------|
G--------3-10-3-11-3-11-3-11-10----|
B----------------------------------|            Use Tapping (X4)
D----------------------------------|
A----------------------------------|
E----------------------------------|

Hope this helps =]
Related for House Of Cards tab