Song name
# A B C D E F G H I J K L M N O P Q R S T U V W X Y Z

Madrugada - Step Into This Room And Dance For Me tab

------------------------------------------------------------------------
         Madrugada - Step into this room and dance for me 
------------------------------------------------------------------------

Tuning : Standart

INTRO & VERSE RIFF :

e|--------------------------------------|
B|--------------------------------------|
G|--------0~-----------------3----------|
D|----1------1---1---1---------3--------|
A|--3---3------3---3---3-1~------0------|
E|--------------------------------------|

e|--------------------------------------||
B|--------------------------------------||
G|--------------------------------------||
D|-----3---3---3---3---3---3---3---3----||
A|-------3-------3-------3-------3------||
E|-0h1-------1-------1-------1----------||

CHORUS :

    G#             D#            C#
e|--4--4--4-4-4-4--6--6--6-6-6-6--3--3--3-3-3-3--3--3--3-3-3-3--|
B|--4--4--4-4-4-4--8--8--8-8-8-8--4--4--4-4-4-4--4--4--4-4-4-4--|
G|--5--5--5-5-5-5--8--8--8-8-8-8--5--5--5-5-5-5--5--5--5-5-5-5--| x2
D|--6--6--6-6-6-6--8--8--8-8-8-8--5--5--5-5-5-5--5--5--5-5-5-5--|
A|--6--6--6-6-6-6--6--6--6-6-6-6--3--3--3-3-3-3--3--3--3-3-3-3--|
E|--4--4--4-4-4-4-----------------------------------------------|

CHORUS 2 :

    G#                            C#
e|--4--4--4-4-4-4--4--4--4-4-4-4--3--3--3-3-3-3--3--3--3-3-3-3--|
B|--4--4--4-4-4-4--4--4--4-4-4-4--4--4--4-4-4-4--4--4--4-4-4-4--|
G|--5--5--5-5-5-5--5--5--5-5-5-5--5--5--5-5-5-5--5--5--5-5-5-5--| x2
D|--6--6--6-6-6-6--6--6--6-6-6-6--5--5--5-5-5-5--5--5--5-5-5-5--|
A|--6--6--6-6-6-6--6--6--6-6-6-6--3--3--3-3-3-3--3--3--3-3-3-3--|
E|--4--4--4-4-4-4--4--4--4-4-4-4--------------------------------|

e|--4--4--4-4-4-4--1~--|
B|--4--4--4-4-4-4--1~--|
G|--5--5--5-5-5-5--1~--|
D|--6--6--6-6-6-6--3~--|
A|--6--6--6-6-6-6--3~--|
E|--4--4--4-4-4-4--1~--|

INTRO again

VERSE RIFF again

CHORUS again 

and repeat play G# and C# few times .

end on F5 and

End song play only guitar :

e|--------------------------------------------------------|
B|--------------------------------------------------------|
G|--------------------------------------------------------|
D|--5-5-5-5-5\8-10~-10-10-10-10-10-10-10-\6-6-6-6-6-6--3~-|
A|--5-5-5-5-5\8-10~-10-10-10-10-10-10-10-\6-6-6-6-6-6--3~-|
E|--3-3-3-3-3\6-8~--8--8--8--8--8--8--8--\4-4-4-4-4-4--1~-|

PLEASE RATE TNX 
Tap to rate this tab
# A B C D E F G H I J K L M N O P Q R S T U V W X Y Z