Guitaretab - guitar tabs
Song name
# A B C D E F G H I J K L M N O P Q R S T U V W X Y Z

Madrugada - Only When Youre Gone tab

Highlighted       Show chord diagrams
------------------------------------------------------------------------
	       Only when you're gone - Madrugada
------------------------------------------------------------------------
Tabbed by: Frank
Email: frankmagnussen@hotmail.com

Tuning: standard


    Em 				   Am	
e|----------------------------- -------------------------------|
B|----------------------------- --------1-------------1--------|
G|-------0-------------0------- ----2-----2---2---2-----2---2--|
D|---2-----2---2---2-----2---2- ------2-----2-------2-----2----|
A|-----2-----2-------2-----2--- --0-------------0--------------|
E|-0-------------0------------- -------------------------------|

Intro:
Em

Chorus:
                  Am                    Em
Only when youíre gone. Only when youíre gone
                 Am                              Em 
Only when youíre gone and away, only when youíre gone


Verse 1:
                        Am
Gonna need a hammer and nails
                         Em
To construct this bitter love song
	                Am
This cruel testament in song
                                Em
That rings out only when youíre gone
[ Tab from: http://www.guitaretab.com/m/madrugada/75976.html ]

Chorus


Verse 2:
Em
Rude are the tongues of love that speak of mercy for us all
                          Am            
That leave us only with a song
 			   Em	
That leave us only with a song
			    Am
Now itís a cold and hollow whisper
				 Em
That consumes my body when youíre gone


Chorus

                          G        Bm
And itís only when youíre gone and away
Em         
My ghost looks (?) in that special way
            G             Bm  
Itís a nice hotel, my hometown
Em
Come feel the darkness of this prison cell

I love you long and I love you well


Verse 3:
                  Am                    Em 
So bury me in the kitchen, bury me into stone
                           Am
Oh, bury me everywhere you go
 		      Em	
In the shadows of the hallway


Verse 4:
			 Am
A fall we do not longer know, 
                      Em
What we can no longer hold
                                          Am 
On days like these our heads fill up with smoke
		       Em	
And our memories grow old


Chorus x3

 Am	Em 
Related for Only When Youre Gone tab