Song name
# A B C D E F G H I J K L M N O P Q R S T U V W X Y Z

Mae - Crazy Eights tab

----------------------------------------------------------------------------
			     CRAZY 8's - Mae
----------------------------------------------------------------------------
Tabbed by: Rachelle
Email: bayanrj@gmail.com

Tuning: Half Step Down

Revisions are welcome.


Intro/Verse 1
e|------------0----------------------------------------|
B|------------2----------------------------------------|
G|------------2------------------------------7---9---9-|
D|------------2--44444444--99--7--6----(x3)--7---9---7-|
A|--44444444--0--22022022--77--5--4----------5---7---7-|
E|--22022022--0----------------------------------------|


e|------------0----------------------------------------|
B|------------2----------------------------------------|
G|------------2----------------------------------------|
D|------------2--44444444--99--7--6----(x3)------------|
A|--44444444--0--22022022--77--5--4--------------------|
E|--22022022--0----------------------------------------|

Pre-chorus
e|-----------------------------------------------------|
B|-----------------------------------------------------|
G|--7---9-------9---(x2)---7---9-----------------------|
D|--7---9---7---7----------7---9-----------------------|
A|--5---7---7---7----------5---7-----------------------|
E|----------5------------------------------------------|


Chorus
"What was wrong with that..."
e|-------------------------------------2---0----------|
B|-------------------------------------3---2----------|
G|---9---9---9---9---7-----------------2---2----------|
D|---9---9---9---9---7---(x2)--3---5---0---2----------|
A|---7---0---x---0---5---------3---5---0---0----------|
E|-----------9-----------------1---3---0---0----------|

Intro/Verse 2
e|------------0---------------------------------------|
B|------------2---------------------------------------|
G|------------2---------------------------------------|
D|------------2--44444444--99--7--6----(x4)-----------|
A|--44444444--0--22022022--77--5--4-------------------|
E|--22022022--0---------------------------------------|

Pre-chorus
e|-----------------------------------------------------|
B|-----------------------------------------------------|
G|--7---9-------9---(x2)---7---9-----------------------|
D|--7---9---7---7----------7---9-----------------------|
A|--5---7---7---7----------5---7-----------------------|
E|----------5------------------------------------------|

Chorus
"What was wrong with that..."
e|-----------------------------------------0-----------|
B|-------------------------------------3---2-----------|
G|---9---9---9---9---7-----------------2---2-----------|
D|---9---9---9---9---7---(x2)--3---5---0---2-----------|
A|---7---0---x---0---5---------3---5---0---0-----------|
E|-----------9-----------------1---3---0---0-----------|

Bridge

e|---0-------------------------------------------------|
B|---0-------3-----------------------------------------|
G|---2---2---2---2---2---9-----------------------------|
D|---2---2---0---2---2---9-----------------------------|
A|---0---x---0---x---x---7-----------------------------|
E|---0---2---0---2---2---------------------------------|

"Is this truth, is this real..."
e|-----------------------------------------------------|
B|-----------------------------------------------------|
G|---9-------7---9-------------------------------------|
D|---7---7---7---9-------------------------------------|
A|---7---7---5---7-------------------------------------|
E|-------5---------------------------------------------|

Chorus
"What was wrong with that..."
e|-----------------------------------------------------|
B|-----------------------------------------------------|
G|---9---9---9---9---7----------9---9---9---7----------|
D|---9---9---9---9---7---(x4)---7---9---9---7----------|
A|---7---0---x---0---5----------7---7---x---5----------|
E|-----------9--------------------------9--------------|

Ending

e|---------------0-------------------------------------|
B|-----------3---2-------------------------------------|
G|-----------2---2-------------------------------------|
D|---3---5---0---2----(x2)-----------------------------|
A|---3---5---0---0-------------------------------------|
E|---1---3---0---0-------------------------------------|
Tap to rate this tab
 
# A B C D E F G H I J K L M N O P Q R S T U V W X Y Z