Song name
# A B C D E F G H I J K L M N O P Q R S T U V W X Y Z

Magnetic Man - Ping Pong tab

Magnetic Man - Ping Pong
Guitar tab by Seagerash

EADGBE


E|--------12--9--9--10--9----------12--9--9--10--9--------12--9--9--10--9--|
B|--7--7-------------------10--10-------------------9--9-------------------|
G|-------------------------------------------------------------------------|
D|-------------------------------------------------------------------------|
A|-------------------------------------------------------------------------|
E|-------------------------------------------------------------------------|



E|--------12--16--17--16--12----------14--9--9--10--9--------14--9--9--10--12-|
B|--7--7----------------------12--12-------------------12-12------------------|
G|----------------------------------------------------------------------------|
D|----------------------------------------------------------------------------|
A|----------------------------------------------------------------------------|
E|----------------------------------------------------------------------------|



E|--14--14--13------------------16--16--13----------16------16-------|
B|--------------14--14--12--14--------------14--14------14------14---|
G|-------------------------------------------------------------------| Repeat
D|-------------------------------------------------------------------|
A|-------------------------------------------------------------------|
E|-------------------------------------------------------------------|


                           Youtube.com/seagerash
Tap to rate this tab
# A B C D E F G H I J K L M N O P Q R S T U V W X Y Z