Song name
# A B C D E F G H I J K L M N O P Q R S T U V W X Y Z

Mago De Oz - Molinos De Viento tab

Hola a todos los amantes del rock, hoy les traigo este solo de mago de oz cancion 
de viento, esta 100% correcto, espero que les guste.

Primera Parte

e---7-7-7-7-5-------5--------7-7-7-7-5------------7-7-7-7-5-------5---------|
B-------------8-7-8---8-7-5------------8-7-8-7-5------------8-7-8---8-7-5---|
G-------------------------------------------------------------------------7-|
D---------------------------------------------------------------------------|
A---------------------------------------------------------------------------|
E---------------------------------------------------------------------------|

e-------5-------------|
B-5-7-8---8-7-5-8-5---|
G---------------------|  x2
D---------------------|
A---------------------|
E---------------------|

Segunda Parte

e---------------------------------------------------------5-7-8-7-5---------|
B---5-7-8-7-8-7-5-7---------------------------------5-7-8-----------8-7-5-8-|
G---------------------------4-5-7-5-4---------4-5-7-------------------------|
D---------------------4-5-7-----------7-4-5-7-------------------------------|
A---------------------------------------------------------------------------|
E---------------------------------------------------------------------------|

e-5-7-8-7---8-7----7----7-10-8-7----7-8-7----7-------------------------------|
B---------------10---10----------10-------10---10-8-7-8-10-8-7---7-8-7-------|
G--------------------------------------------------------------9-------9-7-9-|
D----------------------------------------------------------------------------|
A----------------------------------------------------------------------------|
E----------------------------------------------------------------------------|

e---------|
B-7-8-7---|
G-------9-|
D---------|
A---------|
E---------|
Tap to rate this tab
 
# A B C D E F G H I J K L M N O P Q R S T U V W X Y Z