Song name
# A B C D E F G H I J K L M N O P Q R S T U V W X Y Z

Mago De Oz - Molinos De Viento tab

Intro
00:00

  mim
E-------------0------------------------0-----------|
B-------0-------0----------------0-------0---------|
G-----0---0-------0---0--------0---0-------0---0---|
D---2-------2-------2---2----2-------2-------2---2-|
A--------------------------------------------------|
E-0------------------------0-----------------------|

  Re                           Do           Re
E-------0-----2-----2h3p2-------------------------2h3p2-----|
B-----3---3-----3---------3----------1----------3-------3---|
G---2-------2-----2---------2------0---0------2-----------2-|
D-0------------------------------2-------2--0---------------|
A------------------------------3----------------------------|
E-----------------------------------------------------------|

Violín       de fondo va el intro
00:27
E----3-5-3-2-3-0----3-5-3-2-3----2-5-2-0-2-----0-3-----2-5-|
B-----------------------------3------------1-1-----3-3-----|
G----------------------------------------------------------| dos veces
D----------------------------------------------------------|
A----------------------------------------------------------|
E----------------------------------------------------------|


Verso        intro cuatro veces
00:55

Si acaso tu no vez
mas allá de tu nariz
no oyes a una flor reir
Si no puedes hablar
sin tener que oir tu voz
utilizando el corazón

Amigo Sancho escúchame
no todo tiene un porqué
un camino lo hacen los pies
Hay un mundo por descubrir
y una vida que arrancar
de brazos del guión final

Puente

    violín
    01:50
    E-7---7---7------7-8-----------7---7-|-----------|
    B---8---8---8-10-----10-7-8-10---8---|-8---------|
    G------------------------------------|-----------|  dos veces
    D------------------------------------|-----------|
    A------------------------------------|-----------|
    E------------------------------------|-----------|
     A veces siento al despertar

    E-7---7---7---7-8-10-------------7---|----7------|
    B---8---8---8----------10-7-8-10---8-|-10--------|
    G------------------------------------|-----------|   dos veces
    D------------------------------------|-----------|
    A------------------------------------|-----------|
    E------------------------------------|-----------|
    Que el sueño es la realidad

     |   la barra vertical indica donde termina
     |   la segunda repetición del punteado y
     |   del arpegio

    Guitarra
    01:50
      Mim                      Re           Do
    E--------------------------------2--------------------|
    B-------0------0-----0---------3---3----------1-------|
    G-----0---0------0-----0-----2-------2------0---0-----|  dos veces
    D---2-------2------2-----2-0--------------2-------2---|
    A---------------------------------------3-------------|
    E-0---------------------------------------------------|

     Sol                       Re           Do
    E-------------3------------------2--------------|-------|
    B-------0-------0---0----------3---3----------1-|-------|
    G-----0---0-------0---0------2-------2------0---|-0-----|  dos veces
    D---0-------0-----------0--0--------------2-----|---2---|
    A---------------------------------------3-------|-------|
    E-3---------------------------------------------|-------|


Coro
02:20

mim
Bebe, canta, sueña
              Re                   Do
siente que el viento ha sido hecho para ti
mim
Vive, escucha y habla
       Re           Do
usando para ello el corazón
Sol                          Re
Siente que la lluvia besa tu cara
             Do
cuando haces el amor
Sol                          Re
Grita con el alma grita tan alto


E------------------------------------|
B-------5-3--------------------------|
G-0-2-4-----5-4-2-0------------------|    este es el verdadero punteado
D-------------------4-2-0------------|    de la canción que nadie habia
A-------------------------4-2-0------|    podido sacar
E-------------------------------2----|
  Que de tu vida tu seas amigo el único actor


  Si no les parece el de arriba utilicen este
E--------------------------------------------|
B--------------------------------------------|
G-----4-7-5-4--------------------------------|
D-5-7---------7-5-4--------------------------|
A-------------------7-5-4--------------------|
E-------------------------7-5-4-2------------|


02:35
  Fa# Fa# Fa# Fa#            Fa# Fa# Fa# sim


Parte alegre de violín
02:36
                  mim
E15-15-15-15-15-17-15-15-15-14-15-12---15-15-15-15-15-17-15-15-15-14-15----|
B-----------------------------------------------------------------------15-|
G--------------------------------------------------------------------------|
D--------------------------------------------------------------------------|
A--------------------------------------------------------------------------|
E--------------------------------------------------------------------------|
   Re                            Do              Re
E--14-14-14-14-14-17-14-14-12-14----------12-15----------14-17--|
B--------------------------------13-13-13-------15-15-15--------|
G---------------------------------------------------------------|
D---------------------------------------------------------------|
A---------------------------------------------------------------|
E---------------------------------------------------------------|

Punteado de guitarra
2:50
   mim                                mim
E---------------------------------------------------------------------|
B--12-12-12-12-10----------10---------12-12-12-12-10------------------|
G-----------------12-11-12----12-11-9----------------12-11-12-11-9----|
D---------------------------------------------------------------------|
A---------------------------------------------------------------------|
E---------------------------------------------------------------------|
   Re                                    Do Do             Re Re
E---------------------------------------------------------------------|
B--12-12-12-12-10----------10---------------------8-10-8--------------|
G-----------------12-11-12----12-11-9-------9--11---------11-9---12-9-|
D---------------------------------------12----------------------------|
A---------------------------------------------------------------------|
E---------------------------------------------------------------------|


Segunda guitarra     violín     con los mismos acordes de arriba
2:58                 3:05

E-10-10-10-10-------------------------10-10-10-10---------------------|
B-------------13-12-10-12-13-12-10----------------13-12-10-12-13-12---|
G----------------------------------12---------------------------------|
D---------------------------------------------------------------------|
A---------------------------------------------------------------------|
E---------------------------------------------------------------------|


E-10-10-10-10--------------------------------------10-----------------|
B-------------13-12-10-12-13-12-10--------10-12-13----13-12-10-13-10--|
G----------------------------------12--12-----------------------------|
D---------------------------------------------------------------------|
A---------------------------------------------------------------------|
E---------------------------------------------------------------------|


Violín
03:12
  mim           Re          Do
E-------------------------------------|----------|
B-8---8---8----7-8-10--7----5-7-8-5-8-|-5--------|
G---9---9---9------------7------------|----------|   dos veces
D-------------------------------------|----------|
A-------------------------------------|----------|
E-------------------------------------|----------|


  Sol           Re          Do
E-7---7---7---7-8-10-------------7---|----7------|
B---8---8---8----------10-7-8-10---8-|-10--------|
G------------------------------------|-----------|   dos veces
D------------------------------------|-----------|
A------------------------------------|-----------|
E------------------------------------|-----------|


Verso
03:25

mim mim
       Si acaso tu opinión
mim mim
       cabe en un si o un no
Re Re                        Do Re
       y no sabes rectificar

mim mim
       Si puedes definir
mim mim
       el odio o el amor
Re Re                      Do Re
       amigo que desilusión


mim
No todo es blanco o negro, es gris
                      Re
todo depende del matiz
                          Do Re
busca y aprende a distinguir

mim
La luna puede calentar
                        Re
y el sol tus noches acunar
                        Do Re
los árboles mueren de pie


Puente
03:52
  mim           Re          Do
E-------------------------------------|----------|
B-8---8---8----7-8-10--7----5-7-8-5-8-|-5--------|
G---9---9---9------------7------------|----------|   dos veces
D-------------------------------------|----------|
A-------------------------------------|----------|
E-------------------------------------|----------|
   He visto un manantial llorar

  Sol           Re          Do
E-7---7---7---7-8-10-------------7---|----7------|
B---8---8---8----------10-7-8-10---8-|-10--------|
G------------------------------------|-----------|   dos veces
D------------------------------------|-----------|
A------------------------------------|-----------|
E------------------------------------|-----------|
  Al ver sus aguas ir al mar


Coro dos veces


Fa# Fa# Fa# Fa#       Fa# Fa# Fa# sim

E-------0------|
B-------0------|
G-------0------|
D-------2------|
A-2-0---2------|
E-----3-0------|
Tap to rate this tab
# A B C D E F G H I J K L M N O P Q R S T U V W X Y Z