Guitaretab - guitar tabs
Song name
# A B C D E F G H I J K L M N O P Q R S T U V W X Y Z

Mago De Oz - Noche Toledana tab

e|------------------------|--------------|--------------||-----------
B|-----------------12-----|--------10----|-------8------||-----------
G|----------12--12-----12-|-11--11----11-|-9--9----9----||--"INTRO"--
D|------------------------|--------------|--------------||-----------
A|------------------------|--------------|--------------||-----------
E|------------------------|--------------|--------------||-----------

e|----------------------------------|--------------------------------|
B|-----7--7h8---7--7h8--7-----------|-----------12--13-12-10---------|
G|-------------------------9--8-----|----12--12---------------11-----|
D|---------------------------------9|-----------------------------12-|
A|----------------------------------|--------------------------------|
E|----------------------------------|-------------"MITAD"------------|
[ Tab from: http://www.guitaretab.com/m/mago-de-oz/48066.html ]
e|----------------------------------------------------------|
B|-------------13--15--13--12-------------------------------|
G|-----14--14------------------14---------------------------|
D|---------------------------------14-----------------------|
A|----------------------------------------------------------|
E|----------------------------------------------------------|

(aquí se vuelve a "REPETIR" el intro)
("REPEAT" the intro)
-----------------------------------------|

(aquí se repite la mitad)

-----------------------------------------|

final o outro

e|----------------------------------------------------------------------|
B|-------------13--15--13-------12--------10------8----7-------------8--|
G|-----14--14-----------------------------------------------------------|
D|----------------------------------------------------------------------|
A|----------------------------------------------------------------------|
E|----------------------------------------------------------------------|


h = hammer

Colaboración de  "El Ruejjjga" (Daniel Ruezga)

i - meil: danny_r4@hotmail.com
Related for Noche Toledana tab
Noche Toledana chords by Mago De Oz