Song name
# A B C D E F G H I J K L M N O P Q R S T U V W X Y Z

Magrudergrind - Drifting Away tab

|----------------------------|
|----------------------------|
|----------------------------|
|----------------------------|
|2-----3/6\3------1/8\7------|
|0-----1/3\1------3/6\5------| 

|---------------------|
|---------------------|
|---------------------|
|---------------------|
|3-----6----36-2------|
|1-----3----13-0------|

|------------------|
|------------------|
|------------------|
|------------------|
|2--2/87--5/7\53-5-|
|0--0/65--3/5\31-3-|

The end.
Tap to rate this tab
 
# A B C D E F G H I J K L M N O P Q R S T U V W X Y Z