Song name
# A B C D E F G H I J K L M N O P Q R S T U V W X Y Z

Maher Zain - Thank You Allah chords

Highlighted       Show chord diagrams
"Thank You Allah"

Capo:1st

C9: x32030

Intro: Am F G Em (x4)

Am
  I was so far from you
F                             Em
  Yet to me you were always so close
                        Em
  I wandered lost in the dark
                 F
  I closed my eyes toward the signs
                 C
  You put in my way
                F
  I walked everyday
                                 Em
  further and further away from you

          F
  Ooooo Allah, you brought me home
   C                     C9       C
  I thank you with every breath I take

     Am       F      G        Em
  Al-hamdoulillah Al-hamdoulillah
      Am           F
  All praises to Allah
      G            Em
  All praises to Allah


Am
  I never thought about
F                                Em
  All the things you have given to me
                       Em
  I never thanked you once
               F
  I was too proud

  to see the truth
                   C
  And prostrate to you
                          F
  Until I took the first step
                                           Em
  And that's when you opened the doors for me
        F                          C
  Now Allah, I realized what I was missing
           C9        C
  By being far from you

     Am       F      G        Em
  Al-hamdoulillah Al-hamdoulillah
     Am           F
  All praises to Allah
      G            Em
  All praises to Allah

Solo:
   Am                    F                 G               Em
e|---------------------|-----------------|---------------|----------|
b|---0-1-1-1-1h3p1-0-0-|-1-1-1-1h3p1-0-1-|-0-0-0----0----|-0-0-0----|
g|--2----2-2--------2--|-2-2-2--------2--|-0-0-0-0h2-2-0-|-0-0-0--0-|
d|-2----2-2-2----------|--3-3-3----------|--0-0-0--------|--2-2--2--|
a|---------------------|-----------------|---------------|----------|
E|---------------------|-1---------------|-3-------------|-0--------|

   Am                    F                 G               Em
e|---------------------|-------------------|--------------|---------|
b|-1h3p1-1-1-1h3p1-0-0-|-1-1-1---------0-1-|-0-0-0--------|-0-------|
g|-2-----2-2--------2--|-2-2-2--0h2p0-2----|-0-0-0-2h3-0--|-0-------|
d|-2----2-2-2----------|--3-3--3-----------|--0-0-0-----3-|-2-------|
a|---------------------|-------------------|--------------|---------|
E|---------------------|-1-----------------|-3------------|-0-------|


  Am
  Allah, I wanna thank you
F                       G
  I wanna thank you for all the things that you've done
Em                                  F                    Dm
  You've done for me through all my years I've been lost
F                             G
  You guided me from all the ways that were wrong
Em
  And did you give me hope

  Em   Am  
  Oo Allah, I wanna thank you
C                       G
  I wanna thank you for all the things that you've done
F                                   Dm                   F
  You've done for me through all my years I've been lost
                              G
  You guided me from all the ways that were wrong
            F           Em          Am
  I wanna thank you for bringing me home

     Am       F      G        Em
  Al-hamdoulillah Al-hamdoulillah
     Am           F
  All praises to Allah
      G            Em
  All praises to Allah

  الحمد لله
Tap to rate this tab
# A B C D E F G H I J K L M N O P Q R S T U V W X Y Z