Song name
# A B C D E F G H I J K L M N O P Q R S T U V W X Y Z

Major Accident - Bad Company tab

Artist- Major Accident
Song- Bad Company


tabbed by jam9383@yahoo.com


Intro

e-----------------------------------------------------------------------|
B-----------------------------------------------------------------------|
G-----------------------------------------------------------------------|
D-----------------------------------------------------------------------|
A-----------------------------------------------------------------------|
E-10---10--12-13------12---10---8-----1-1--10---10--12-13------12---10--|

e----------------------------------------------------------------------|
B----------------------------------------------------------------------|
G----------------------------------------------------------------------|
D----------------------------------------------------------------------|
A----------------------------------------------------------------------|
E-8----10---10--12--13------12--10--8---8-8----8----3---5--6---5--3--1-|

Verse

all downstrokes pulsating by relaxing fret hand after each stroke

e---------------------------------------------------------------------|
B---------------------------------------------------------------------|
G--7-7-7-7-7-7---10-10-10-10-10-10------------------------------------|
D--7-7-7-7-7-7---10-10-10-10-10-10-10-10-10-10-10-10------------------|
A--5-5-5-5-5-5---8--8--8--8--8--8--10-10-10-10-10-10------------------|
E----------------------------------8--8--8--8--8--8-------------------|

Chorus

e---------------------------------------------------------------------|
B---------------------------------------------------------------------|
G-10-9--------------------9-10-10-10-10-10-----10-9-7-7-7-7-7--7-9-10-|
D-10-9-10-10-10-10-10--10-9-10-10-10-10-10--x2-10-9-7-7-7-7-7--7-9-10-|
A-8--7-10-10-10-10-10--10-7-8--8--8--8--8------8--7-5-5-5-5-5--5-7-8--|
E------8--8--8--8--8---8----------------------------------------------|


e---------------------------------------------------------------------|
B---------------------------------------------------------------------|
G-10-10-10-10-10---10-9---------------------9-10-10-10-10-10----------|
D-10-10-10-10-10---10-9-10-10-10-10-10---10-9-10-10-10-10-10----------|
A-8--8--8--8--8----8--7-10-10-10-10-10---10-7-8--8--8--8--8-----------|
E------------------------8--8--8--8--8---8----------------------------|


Solo

e---------------------------------------------------------------------|
B--8-8-10-8-10-10--10-8-10\11~-------8-8-10-8-10-10--10-8-10\11~------|
G---------------------------------------------------------------------|
D---------------------------------------------------------------------|
A---------------------------------------------------------------------|
E---------------------------------------------------------------------|


e---------------------------------------------------------------------|
B--6-6-8-6-8-8---8-6-8\11~------6-6-8-6-8-8---8-6-8\11~---------------|
G---------------------------------------------------------------------|
D---------------------------------------------------------------------|
A---------------------------------------------------------------------|
E---------------------------------------------------------------------|

e---------------------------------------------------------------------|
B--3--3-5-6--6-5-3--1-1~-----3--3-5-6-6-5-3~---3--3-5-6-6-5-3--6-6----|
G---------------------------------------------------------------------|
D---------------------------------------------------------------------|
A---------------------------------------------------------------------|
E---------------------------------------------------------------------|

e---------------------------------------------------------------------|
B---------------------------------------------------------------------|
G--5------3-2-0-------------------------------------------------------|
D----4-4--------3~----------------------------------------------------|
A---------------------------------------------------------------------|
E---------------------------------------------------------------------|

any corrections/comments needed contact me,please rate
Tap to rate this tab
# A B C D E F G H I J K L M N O P Q R S T U V W X Y Z