Song name
# A B C D E F G H I J K L M N O P Q R S T U V W X Y Z

Major League - Homewrecker tab

-------------------------------------------------------------------------------
                             Homewrecker - Major League
-------------------------------------------------------------------------------
Tabbed by: mallory bynoe
E-mail: malloryiiib@yahoo.com



Might be a few mistakes but I'm sure you'll be able to figure it out
since I got the basic parts down

Tuning:standard



                   INTRO:
e|----------------------------------------------|
B|----------------------------------------------|
G|------------4-4-4-4---------------------------|
D|--2-2-2-2---4-4-4-4----4-4-4-4----7-7-7-7-----|
A|--2-2-2-2---2-2-2-2----4-4-4-4----7-7-7-7-----|
E|-----------------------2-2-2-2----5-5-5-5-----|

e|------------------------------------|
B|------------------------------------|
G|------------4-4-4-4-----------------|
D|--2-2-2-2---4-4-4-4----4-4-4-4----7-|
A|--2-2-2-2---2-2-2-2----4-4-4-4----7-|
E|-----------------------2-2-2-2----5-|
        (LET LAST CHORD RING OUT)

               VERSE:
e|----------------------------------------|
B|----------------------------------------|
G|------------4-4-4-4---------------------|
D|--2-2-2-2---4-4-4-4----7-7-7-7-7-7-7-7--|
A|--2-2-2-2---2-2-2-2----5-5-5-5-5-5-5-5--|
E|-----------------------5-5-5-5-5-5-5-5--|X2

             PRE-CHORUS:
e|---------------------------------------|
B|---------------------------------------|
G|-----------------------------4-4-4-4---|
D|--4-4-4-4--7-7-7-7--2-2-2-2--2-2-2-2---|
A|--4-4-4-4--5-5-5-5--2-2-2-2--2-2-2-2---|
E|--2-2-2-2--5-5-5-5---------------------|

e|---------------|
B|---------------|
G|---------------|
D|--4-4-4-4--7---|
A|--4-4-4-4--5---|
E|--2-2-2-2--5---|
(LET LAST CHORD RING OUT)

                 CHORUS:
e|----------------------------------------------|
B|----------------------------------------------|
G|------------4-4-4-4---------------------------|
D|--2-2-2-2---4-4-4-4----4-4-4-4----7-7-7-7-----|
A|--2-2-2-2---2-2-2-2----4-4-4-4----7-7-7-7-----|
E|-----------------------2-2-2-2----5-5-5-5-----|

e|------------------------------------|
B|------------------------------------|
G|------------4-4-4-4-----------------|
D|--2-2-2-2---4-4-4-4----4-4-4-4----7-|
A|--2-2-2-2---2-2-2-2----4-4-4-4----7-|
E|-----------------------2-2-2-2----5-|
        (REPEAT AS NECESSARY)

                  VERSE:
e|----------------------------------------|
B|----------------------------------------|
G|------------4-4-4-4---------------------|
D|--2-2-2-2---4-4-4-4----7-7-7-7-7-7-7-7--|
A|--2-2-2-2---2-2-2-2----5-5-5-5-5-5-5-5--|
E|-----------------------5-5-5-5-5-5-5-5--|X4

            PRE CHORUS:
e|----------------------------------------|
B|----------------------------------------|
G|----------------------------------------|
D|--2-2-2-2---4-4-4-4---7-7-7-7-----------|
A|--2-2-2-2---4-4-4-4---5-5-5-5-----------|
E|------------2-2-2-2---5-5-5-5-----------|X4

                 CHORUS:
e|----------------------------------------------|
B|----------------------------------------------|
G|------------4-4-4-4---------------------------|
D|--2-2-2-2---4-4-4-4----4-4-4-4----7-7-7-7-----|
A|--2-2-2-2---2-2-2-2----4-4-4-4----7-7-7-7-----|
E|-----------------------2-2-2-2----5-5-5-5-----|

e|------------------------------------|
B|------------------------------------|
G|------------4-4-4-4-----------------|
D|--2-2-2-2---4-4-4-4----4-4-4-4----7-|
A|--2-2-2-2---2-2-2-2----4-4-4-4----7-|
E|-----------------------2-2-2-2----5-|
        (REPEAT AS NECESSARY)


e|----------------------------------------------------|
B|----------------------------------------------------|
G|----------------------------------------------------|
D|-----4-4-4-4----7-7-7-7---4-4-4-4----7-7-7-7--------|
A|-----4-4-4-4----7-7-7-7---4-4-4-4----7-7-7-7--------|
E|-----2-2-2-2----5-5-5-5---2-2-2-2----5-5-5-5--------|
        (REPEAT AS NECESSARY)

e|-----------------------|
B|-----------------------|
G|------4----------------|
D|--2---4---4---7--------|
A|--2---2---4---7--------|
E|----------2---5--------|
  (HOLD EACH CHORD OUT)

                   OUTRO:
e|----------------------------------------------|
B|----------------------------------------------|
G|------------4-4-4-4---------------------------|
D|--2-2-2-2---4-4-4-4----4-4-4-4----7-7-7-7-----|
A|--2-2-2-2---2-2-2-2----4-4-4-4----7-7-7-7-----|
E|-----------------------2-2-2-2----5-5-5-5-----|

e|------------------------------------|
B|------------------------------------|
G|------------4-4-4-4-----------------|
D|--2-2-2-2---4-4-4-4----4-4-4-4----7-|
A|--2-2-2-2---2-2-2-2----4-4-4-4----7-|
E|-----------------------2-2-2-2----5-|
        (LET LAST CHORD RING OUT)
Tap to rate this tab
# A B C D E F G H I J K L M N O P Q R S T U V W X Y Z