Song name
# A B C D E F G H I J K L M N O P Q R S T U V W X Y Z

Major League - Seasons tab

Seasons- Major League guitar tab

I couldn't find any good or accurate tabs of this song online so I've sat down and 
tabbed it by ear. Email me if you have any questions

For the barre chords, I like to play all of the top four strings in the barre but 
barring only the top two also works. Enjoy!
-----------------------------------------------------------------------------

TUNING: C# G# C# F# A# D#

INTRO:
D#|--0--0--4--5-----2--5---|
A#|--0--0--0--5-----2--5---|
F#|--0--0--0--7-----2--5---|
C#|--2--2--2--7-x2--4--7-x2| (palm mute 4 beats after final chord)
G#|--3--3--3--x-----2--5---|
C#|--x--x--x--x-----x--x---|

VERSE:
"Go ahead and take a walk in my shoes..."
D#|--0--5---|
A#|--5--5---|
F#|--5--5---|
C#|--7--7-x4|
G#|--7--7---|
C#|--x--x---|

"Im changing with the seasons for sign of spring..."
D#--9--7--5---4-5-5|
A#--9--7--5---4-5-5|
F#--9--7--5---4-5-5|
C#--9--7--5---4-5-5|
G#--10-10-7---7-8-8|
C#--x--x--x---x-x-x|
(strum the last three tabs once each)

CHORUS:
"The sun only shines on paradise..."
D#|--0--0--4--5-----2--5---|
A#|--0--0--0--5-----2--5---|
F#|--0--0--0--7-----2--5---|
C#|--2--2--2--7-x2--4--7-x2|
G#|--3--3--3--x-----2--5---|
C#|--x--x--x--x-----x--x---|

VERSE 2:
"I can't keep living with my back against the wall..."
D#|--0--5---|
A#|--5--5---|
F#|--5--5---|
C#|--7--7-x4|
G#|--7--7---|
C#|--x--x---|

"Im changing with the seasons.."
D#--9--7--5---5|
A#--9--7--5---5|
F#--9--7--5---5|
C#--9--7--5---5|
G#--10-10-7---7|
C#--x--x--x---x|

BRIDGE:
"I don't know where i've been for these past few months.."
D#--2----5----5----|
A#--2----5----5----|
F#--0----0----0----|
C#--0----0----0----|
G#--3h5--5h7--7----|
C#--x----x----x----|

"Ive been preaching keep your head up kid..."
D#--9--7--5-|
A#--9--7--5-|
F#--9--7--5-|
C#--9--7--5-|
G#--10-10-7-|
C#--x--x--x-|

"I don't know where i've been for these past few months.."
D#--2----5----5----|
A#--2----5----5----|
F#--0----0----0----|
C#--0----0----0----|
G#--3h5--5h7--7----|
C#--x----x----x----|

"Ive been listening to the upsides bsides..."
D#--9--7--5-|
A#--9--7--5-|
F#--9--7--5-|
C#--9--7--5-|
G#--10-10-7-|
C#--x--x--x-|

"Looking for the answers"
D#|--------------------|
A#|--------------------|
F#|--------7-----------|
C#|--7--9-----9--7-----|
G#|--------------------|
C#|--------------------|

CHORUS:
"The sun only shines on paradise..."
D#|--0--0--4--5-----2--5---|
A#|--0--0--0--5-----2--5---|
F#|--0--0--0--7-----2--5---|
C#|--2--2--2--7-x2--4--7-x2|
G#|--3--3--3--x-----2--5---|
C#|--x--x--x--x-----x--x---|

D#|--9--7--5-|
A#|--9--7--5-|
F#|--9--7--5-|
C#|--9--7--5-|
G#|--10-10-7-|
C#|--x--x--x-|
Tap to rate this tab
 
# A B C D E F G H I J K L M N O P Q R S T U V W X Y Z