Song name
# A B C D E F G H I J K L M N O P Q R S T U V W X Y Z

Making April - Streetlights tab

Standard Tuning

Intro
e|---0-0-0-0-------|
B|---0-0-0-0-------|
G|---1-4-4-2-------|
D|---2-4-4-2-------|
A|---2-2-2-0-------|
E|---0-x-x-x-------|

Verse
e|---0-0-0-0-------|
B|---0-0-0-0-------|
G|---1-2-4-2-------|
D|---2-2-4-2-------|
A|---2-0-2-0-------|
E|---0-x-x-x-------|

Pre-Chorus
e|---0-0-0-0-0-----|
B|---0-0-0-0-0-----|
G|---4-6-4-6-2-----|
D|---4-6-4-6-2-----|
A|---2-4-2-4-0-----|
E|---x-x-x-x-x-----|

Chorus

e|---0-0-0-0-------|
B|---0-0-0-0-------|
G|---1-2-4-6-------|
D|---2-2-4-6-------|
A|---2-0-2-4-------|
E|---0-x-x-x-------|

End of chorus ends in

e|---0--|
B|---0--|
G|---2--|
D|---2--|
A|---0--|
E|---x--|
Tap to rate this tab
# A B C D E F G H I J K L M N O P Q R S T U V W X Y Z