Mallory Knox - Oceans tab

Mallory Knox - Oceon
~~~~~~~~~~~~~~~~~~~~~~~~~~~~~~~~~~~~~~~~~~~~~~~

Tabbed by - Rob Hardy (musicalrob)
Email - musicalrob@live.com

Tuning - Drop D (D, A, d, G, B, E)

Intro
e|-----------------------------------------------------------------------------|
B|-----------------------------------------------------------------------------|
G|----0----------0------0]-----------------------------------------------------|
d|----3---x16----3x8---5x8---------------------------------------------------|
A|----5----------4------3------------------------------------------------------|
D|-----------------------------------------------------------------------------|

Verse 1
e|-----------------------------------------------------------------|
B|-----------------------------------------------------------------|
G|----------9-10-10-10---------------------------------------------|
d|---0-x4---------------x2---5-7-5-7-5-3---------------------------|
A|---0------7-8--8--8--------5-7-5-7-5-3---------------------------|
D|---0-----------------------5-7-5-7-5-3---------------------------|
                             x x x x x


e|-6---5--10----10--5--6--------------------------------------------------------|
B|-6---5--10----10--5--6--------------------------------------------------------|
G|-7---5--10----10--5--7--------------------------------------------------------|
d|-8---7--12----12--7--8--------------------------------------------------------|
A|------------------------------------------------------------------------------|
D|------------------------------------------------------------------------------|

e|------------------------------|
B|------------------------------|
G|------------------------------|
d|---5-----3-----2--------------|X2
A|---5-x16-3-x8--2-x8-----------|
D|---5-----3-----2--------------|



e|-----------------------------------------------------------------|
B|-----------------------------------------------------------------|
G|----------9-10-10-10---------------------------------------------|
d|---0-x4---------------x2---5-7-5-7-5-3---------------------------|
A|---0------7-8--8--8--------5-7-5-7-5-3---------------------------|
D|---0-----------------------5-7-5-7-5-3---------------------------|
                             x x x x x

CHORUS
e|------------------------------------------------------------------------------|
B|------------------------------------------------------------------------------|
G|------------------------------------------------------------------------------| X2
d|--0-x8-5--3--8--8-x-6---------------------------------------------------------|
A|--0----5--3--8--8-------------------------------------------------------------|
D|--0----5--3--8--8-------------------------------------------------------------|


e|-----------------------------------------------------------------------------|
B|-----------------------------------------------------------------------------|
G|-----------------------------------------------------------------------------|
d|--0-x8--5-x8--3 x8 8-x8------------------------------------------------------|
A|--0-----5-----3--- 8---------------------------------------------------------|
D|--0-----5-----3--- 8---------------------------------------------------------|


e|------------------------------------------------------------------------------|
B|------------------------------------------------------------------------------|
G|------------------------------------------------------------------------------|
d|--0-x8-5--3--8--8-x-6---------------------------------------------------------|
A|--0----5--3--8--8-------------------------------------------------------------|
D|--0----5--3--8--8-------------------------------------------------------------|

Verse 2
e|---------------------------------|
B|---------------------------------|
G|---------------------------------| X2
d|--0-x32--5----3------------------|
A|--0------5-x8-3-x8---------------|
D|--0------5----3------------------|


Chorus
e|------------------------------------------------------------------------------|
B|------------------------------------------------------------------------------|
G|------------------------------------------------------------------------------| X2
d|--0-x8-5--3--8--8-x-6---------------------------------------------------------|
A|--0----5--3--8--8-------------------------------------------------------------|
D|--0----5--3--8--8-------------------------------------------------------------|


e|-----------------------------------------------------------------------------|
B|-----------------------------------------------------------------------------|
G|-----------------------------------------------------------------------------|
d|--0-x8--5-x8--3 x8 8-x8------------------------------------------------------|
A|--0-----5-----3--- 8---------------------------------------------------------|
D|--0-----5-----3--- 8---------------------------------------------------------|


e|------------------------------------------------------------------------------|
B|------------------------------------------------------------------------------|
G|------------------------------------------------------------------------------|
d|--0-x8-5--3--8--8-x-6---------------------------------------------------------|
A|--0----5--3--8--8-------------------------------------------------------------|
D|--0----5--3--8--8-------------------------------------------------------------|

e|-----------------------------------------------------------------------------|
B|-----------------------------------------------------------------------------|
G|-----------------------------------------------------------------------------|X4
d|---8-x8--10-x8--0-x-8-5-x-8--------------------------------------------------|
A|---8-----10-----0-----5------------------------------------------------------|
D|---8-----10-----0-----5------------------------------------------------------|

Outro
e|--------------------------------------------------------------------------------|
B|----13-------- 13-------13------15------- 15-------  15-------------------------|
G|--------14--------14-------x2--------15-------15----------x2--------------------|
d|-15--------15--------15------ 17------- 17------- 17----------------------------|
A|--------------------------------------------------------------------------------|
D|--------------------------------------------------------------------------------|

e|-----------------------------------------------------------------------------|
B|----17--------17-------17--------18-------18-------18------------------------|
G|-------17--------17--------X2-------17-------17------------------------------|
d|-19-------19--------19--------19-------19-------19---------------------------|
A|-----------------------------------------------------------------------------|
D|-----------------------------------------------------------------------------|

e|-----------------------------------------------------------------------------|
B|----17--------17-------17----------------------------------------------------|
G|-------17--------17----------------------------------------------------------|
d|-19-------19--------19-------------------------------------------------------|
A|-----------------------------------------------------------------------------|
D|-----------------------------------------------------------------------------|


Final Chord
e|-------------------------------------------------------------------------------|
B|----17-------------------------------------------------------------------------|
G|----17-------------------------------------------------------------------------|
d|----19-------------------------------------------------------------------------|
A|-------------------------------------------------------------------------------|
D|-------------------------------------------------------------------------------|


                                        
Tap to rate this tab
 
# A B C D E F G H I J K L M N O P Q R S T U V W X Y Z