Song name
# A B C D E F G H I J K L M N O P Q R S T U V W X Y Z

Malmsteen Yngwie - Now Your Ships Are Burned tab

#----------------------------------PLEASE NOTE---------------------------------#
#This file is the author's own work and represents their interpretation of the #
#song. You may only use this file for private study, scholarship, or research. #
#------------------------------------------------------------------------------#

NOW YOUR SHIPS ARE BURNED
As recorded by Yngwie Malmsteen
(From the 1984 Album RISING FORCE)

Transcribed by http://starnouf.chez.tiscali.fr/ - Ivan - (peekaboo104@hotmail.com)
	

Words and Music by Yngwie J. Malmsteen

Em
0 2 2 0 0 0
	
C
x 3 5 5 5 x
	
B
x 2 4 4 4 x
	
B/Eb
x x 1 4 4 x

E5
0 2 2 x x x
	
B5
x 2 4 4 x x

Gtr I (Eb Ab Db Gb Bb Eb) - 'Gtr 1'
Gtr II (Eb Ab Db Gb Bb Eb) - 'Gtr 2'
Gtr III (Eb Ab Db Gb Bb Eb) - 'Gtr 3'

  Intro
  Moderate Rock Q=152
  N.C.            (B)
 4/4
  Gtr I
                  PM      ~~~~~~                PM      ~
  Q  e e H        E S S E E +S  S S S S S S S   E S S E E +S  S S S S S S S
|----x-x-------||-----------------------------|------------------------------|
|----x-x-------||-----------------------------|------------------------------|
|--------------||-----4---5-(5)-4p2-----------|-----4---5-(5)-4p2------------|
|--------------||-------------------5-4-2-1---|-------------------5-4-2-1----|
|--------------||-2-------------------------3-|-2-------------------------3--|
|--------x\----||-----------------------------|------------------------------|


  PM      ~~~~~~                PM      ~~~~~~
  E S S E E +S  S S S S S S S   E S S E E +S  S S S S S S S
|-----------------------------|-----------------------------|
|-----------------------------|-----------------------------|
|-----8---9-(9)-8p5-----------|-----8---9-(9)-8p5-----------|
|-------------------9-7-5-----|-------------------9-7-5-----|
|-6-----------------------9-7-|-6-----------------------9-7-|
|-----------------------------|-----------------------------|
|
| Gtr II
| PM      ~                     PM      ~
| E S S E E +S  S S S S S S S   E S S E E +S  S S S S S S S
|-----------------------------|-----------------------------|
|-----------------------------|-----------------------------|
|-----4---5-(5)-4p2-----------|-----4---5-(5)-4p2-----------|
|-------------------5-4-2-1---|-------------------5-4-2-1---|
|-2-------------------------3-|-2-------------------------3-|
|-----------------------------|-----------------------------|


  PM      ~~~~~~                PM      ~~~~~~
  E S S E E +S  S S S S S S S   E S S E E +S  S S S S S S S
|-----------------------------|--------------------------------|
|-----------------------------|--------------------------------|
|-----8---9-(9)-8p5-----------|-----8---9-(9)-8p5--------------|
|-------------------9-7-5-----|-------------------9-7-5--------|
|-6-----------------------9-7-|-6-----------------------9-7----|
|-----------------------------|--------------------------------|
|
| PM      ~                     PM      ~
| E S S E E +S  S S S S S S S   E S S E E +S  S S S S S S S
|-----------------------------|--------------------------------|
|-----------------------------|--------------------------------|
|-----4---5-(5)-4p2-----------|-----4---5-(5)-4p2--------------|
|-------------------5-4-2-1---|-------------------5-4-2-1------|
|-2-------------------------3-|-2-------------------------3----|
|-----------------------------|--------------------------------|


  B5                   C5     B5
                                                                  ~
                                          |-3-| |----6----| |-3-|
  Q  H.        Q  Q.   Q.     S S S S S S S S S S S S S S S S S S E
|------------|--------------|-------------------7h8p7p5---------------||
|------------|--------------|-------------4h5h7---------8p7-5h7p5s4---||
|------------|--------------|-------4h5h7-----------------------------||
|-4----------|-4-------5----|-4h5h7-----------------------------------||
|-2----------|-2-------3----|-----------------------------------------||
|------------|--------------|-----------------------------------------||
|
| Q  H.        Q  Q.   Q.     Q       Q         H
|------------|--------------|-----------------------------------------||
|------------|--------------|-----------------------------------------||
|-4----------|-4-------5----|-4---------------------------------------||
|-4----------|-4-------5----|-4---------------------------------------||
|-2----------|-2-------3----|-2---------------------------------------||
|------------|--------------|-----------------------------------------||


  N.C.                      C5B5
  Gtrs I, II
  PM--|             PM----|       PM--|             PM----|
  S S S T T S S S S S S S S E E   S S S T T S S S S S S S S S S S S
|-------------------------------|-----------------------------------|
|-------------------------------|-----------------------------------|
|-------------------------------|-----------------------------------|
|-------1h2p1-------1-------5-4-|-------1h2p1-------1---------------|
|-0-2-3-------3-2-0---3-2-0-3-2-|-0-2-3-------3-2-0---3-2-0---------|
|-------------------------------|---------------------------3-2-0-2-|


                            C5B5
  PM--|             PM----|
  S S S T T S S S S S S S S E E
|--------------------------------|
|--------------------------------|
|--------------------------------|
|-------1h2p1-------1-------5-4--|
|-0-2-3-------3-2-0---3-2-0-3-2--|
|--------------------------------|


  N.C.
  PM--|             PM----|
  S S S T T S S S S S S S S S S S S
|-----------------------------------|
|-----------------------------------|
|-----------------------------------|
|-------1h2p1-------1---------------|
|-0-2-3-------3-2-0---3-2-0---------|
|---------------------------3-2-0-2-|


  PM--|             PM----|       PM--|             PM----| ~
  S S S T T S S S S S S S S E E   S S S T T S S S S S S S S E E
|-------------------------------|--------------------------------|
|-------------------------------|--------------------------------|
|-------------------------------|--------------------------------|
|-------1h2p1-------1-----------|--------------------------------|
|-0-2-3-------3-2-0---3-2-0-3-2-|-------1h2p1-------1------------|
|-------------------------------|-0-2-3-------3-2-0---3-2-0-3-2--|


  PM--|             ~~
  S S S T T S S S S Q             Q
|---------------------------------------------|
|---------------------------------------------|
|---------------------------------------------|
|---------------------------------------------|
|-------1h2p1---------------------------------|
|-0-2-3-------3-2-0-2-------------------------|
|
| Gtr II
|                                           ~
|                   |-----7-----| |---5---|
| H                 S S S S S S s T T T T T E
|-------------------8p7p5---------------------|
|-------------------------8p7p5---------------|
|-------------------------------8-4h5p4-------|
|---------------------------------------7p5p4-|
|---------------------------------------------|
|---------------------------------------------|


  PM--|             PM----| ~     PM--|
  S S S T T S S S S S S S s E E   S S S T T S S S S q  Q
|-------------------------------|---------------------------||
|-------------------------------|---------------------------||
|-------------------------------|---------------------------||
|-------------------------------|---------------------------||
|-------1h2p1-------1-----------|-------1h2p1---------------||
|-0-2-3-------3-2-0---3-2-0-3-2-|-0-2-3-------3-2-0-2-------||
|
| W                               W
|-------------------------------|---------------------------||
|-------------------------------|---------------------------||
|-------------------------------|---------------------------||
|-------------------------------|---------------------------||
|-------------------------------|---------------------------||
|-------------------------------|---------------------------||


 Verse
  B5 C5                    B5     A5
               PM|   PM|
  E. S E E +E  S S E S S   E. S E E +E  S S S S S S
|------------------------|--------------------------|
|------------------------|--------------------------|
|------------------------|--------------------------|
|-4--5---5-(5)-----5-----|-4--4---2-(2)-------------|
|-2--3---3-(3)-0-0-3-0-0-|-2--2---0-(0)-3p2---------|
|------------------------|------------------5p3p2p0-|


  B5 C5                    B5     A5
               PM|   PM|                  PM|
  E. S E E +E  S S E S S   E. S E E +Q.   S S
|------------------------|---------------------|
|------------------------|---------------------|
|------------------------|---------------------|
|-4--5---5-(5)-----5-----|-4--4---2-(2)--------|
|-2--3---3-(3)-0-0-3-0-0-|-2--2---0-(0)--------|
|------------------------|----------------0-2--|


  N.C.
                 ~~~                       ~~~
  E S S +S  S E +Q.   S S   E S S +S  S E +Q.   S S
|-------------------------|-------------------------|
|-------------------------|-------------------------|
|-------------------------|-------------------------|
|-------------------------|-1-----------------------|
|---------------------2-3-|---3-2-(2)-3-2-(2)-------|
|-3-2-0-(0)-3-2-(2)-------|---------------------0-2-|


                                        B5
                 ~~~
  E S S +S  S E +Q.   S S   E S S +S  S E H
|-------------------------|--------------------|
|-------------------------|--------------------|
|-------------------------|--------------------|
|-------------------------|-1-----------4------|
|---------------------2-3-|---3-2-(2)-3-2------|
|-3-2-0-(0)-3-2-(2)-------|--------------------|


         C5                B5     A5
               PM|   PM|
  E. S E E +E  S S E S S   E. S E E +E  S S S S S S
|------------------------|--------------------------|
|------------------------|--------------------------|
|------------------------|--------------------------|
|-4--4---5-(5)-----5-----|-4--4---2-(2)-------------|
|-2--2---3-(3)-0-0-3-0-0-|-2--2---0-(0)-3p2---------|
|------------------------|------------------5p3p2p0-|


  B5     C5                B5     C5
               PM|   PM|                  PM|
  E. S E E +E  S S E S S   E. S E E +Q.   S S
|------------------------|---------------------|
|------------------------|---------------------|
|------------------------|---------------------|
|-4--4---5-(5)-----5-----|-4--4---5-(5)--------|
|-2--2---3-(3)-0-0-3-----|-2--2---3-(3)--------|
|--------------------0-0-|----------------0-2--|


  N.C.
                 ~~~                    ~~~~~~
  E S S +S  S E +Q.   S S   E S S +S  S E +Q.   S S
|-------------------------|-------------------------|
|-------------------------|-------------------------|
|-------------------------|-------------------------|
|-------------------------|-1-----------------------|
|---------------------2-3-|---3-2-(2)-3-2-(2)-------|
|-3-2-0-(0)-3-2-(2)-------|---------------------0-2-|


              ~~~~~~
  E S S +S  S E +Q.   S S   E S S +S  S E H
|-------------------------|--------------------||
|-------------------------|--------------------||
|-------------------------|--------------------||
|-------------------------|-1------------------||
|---------------------2-3-|---3-2-(2)-3-2------||
|-3-2-0-(0)-3-2-(2)-------|--------------------||


  N.C.                      C5B5
  PM--|             PM----|       PM--|             PM----|
  S S S T T S S S S S S S S E E   S S S T T S S S S S S S S S S S S
|-------------------------------|-----------------------------------|
|-------------------------------|-----------------------------------|
|-------------------------------|-----------------------------------|
|-------1h2p1-------1-------5-4-|-------1h2p1-------1---------------|
|-0-2-3-------3-2-0---3-2-0-3-2-|-0-2-3-------3-2-0---3-2-0---------|
|-------------------------------|---------------------------3-2-0-2-|


                            C5B5
  PM--|             PM----|
  S S S T T S S S S S S S S E E
|--------------------------------|
|--------------------------------|
|--------------------------------|
|-------1h2p1-------1-------5-4--|
|-0-2-3-------3-2-0---3-2-0-3-2--|
|--------------------------------|


  N.C.
  PM--|             PM----|
  S S S T T S S S S S S S S S S S S
|-----------------------------------|
|-----------------------------------|
|-----------------------------------|
|-------1h2p1-------1---------------|
|-0-2-3-------3-2-0---3-2-0---------|
|---------------------------3-2-0-2-|


  PM--|             PM----|       PM--|             PM----| ~
  S S S T T S S S S S S S S E E   S S S T T S S S S S S S S E E
|-------------------------------|--------------------------------|
|-------------------------------|--------------------------------|
|-------------------------------|--------------------------------|
|-------1h2p1-------1-----------|--------------------------------|
|-0-2-3-------3-2-0---3-2-0-3-2-|-------1h2p1-------1------------|
|-------------------------------|-0-2-3-------3-2-0---3-2-0-3-2--|


  PM--|             ~~
  S S S T T S S S S Q       Q
|-----------------------------------|
|-----------------------------------|
|-----------------------------------|
|-----------------------------------|
|-------1h2p1-----------------------|
|-0-2-3-------3-2-0-2---------------|
|
| Gtr II
| H                 S S S S S S S S
|-------------------8p5-----5p2-----|
|-----------------------7-------4---|
|-------------------------8-------5-|
|-----------------------------------|
|-----------------------------------|
|-----------------------------------|


  PM--|             PM----| ~     PM--|
  S S S T T S S S S S S S s E E   S S S T T S S S S q  Q
|-------------------------------|-------------------------||
|-------------------------------|-------------------------||
|-------------------------------|-------------------------||
|-------------------------------|-------------------------||
|-------1h2p1-------1-----------|-------1h2p1-------------||
|-0-2-3-------3-2-0---3-2-0-3-2-|-0-2-3-------3-2-0-2-----||
|
| W                               W
|-------------------------------|-------------------------||
|-------------------------------|-------------------------||
|-------------------------------|-------------------------||
|-------------------------------|-------------------------||
|-------------------------------|-------------------------||
|-------------------------------|-------------------------||


  B5
  Gtr II
   Q                 Q                H
   |
   /

  Gtr I
   |-----6------|    |-----6------|   |----6-----|     |----6----|
   S  S  S  S   E    S  S  S  S   E   S  S S S S S  a  S S S S S S
|-19h20p19-17--------------------------------------(7)S8p7p5--------|
|-------------(20)\-12h13p12-10------------------------------8p7p5/-|
|-------------------------------(12)\-------------------------------|
|-------------------------------------9h10p9-7----------------------|
|----------------------------------------------xpx------------------|
|-------------------------------------------------------------------|


   W
   |-----------11:8------------|  |------10:8--------|
   S  S  S  S  S  S  S  S  S S S  S S S  S S S S S S S
|-15-14-12-11--------------------------------------------||
|-------------13-12-10-----------------------------------||
|----------------------12-11-9-8-------------------------||
|--------------------------------10-9-7------------------||
|---------------------------------------10-9p7-7h9p7s6---||
|--------------------------------------------------------||


 Guitar Solo
  C          B       EEF# G F E      C                B           E  F# G  F  E
  Gtr II
  Q.         E +E    S  S S S  E      Q.               E    +E     S  S  S  S  E
  |          |  |    |  | | |  |      |                |     |     |  |  |  |  |
  o          o  /    o  o o o  o      o                o     /     o  o  o  o  o

  Gtr I
  Q      +Q    +S  S S  S S S  S S    S  S S  S  S  S  S  S  S  S  S  S  S  S  S  S
|----------------------------------|------------------12p11-14p12-15p14-12----12-14-|
|----------------------------------|---------13p12p10----------------------15-------|
|-------------------------9p8-11p9-|-12p11p9----------------------------------------|
|-9b10===(9)r==(9)-7-9-10----------|------------------------------------------------|
|----------------------------------|------------------------------------------------|
|----------------------------------|------------------------------------------------|


  C                 B           E  F# G  F  E
   Q.                E    +E     S  S  S  S  E
   |                 |     |     |  |  |  |  |
   o                 o     /     o  o  o  o  o

   S  S  S  S  S  S  S  S  S  S  S  S  S  S  S  S
|-15S20p19p17-19----17-----------------------------|
|----------------20----19-20-17-19----17-----------|
|----------------------------------20----19-20-19--|
|--------------------------------------------------|
|--------------------------------------------------|
|--------------------------------------------------|


  C                 B           E F#G   F E             C          B     E  F#G  F  E
   Q.                E    +E    S S  S  S  E              Q.        E +E  S S  S  S  E
   |                 |     |    | |  |  |  |              |         |  |  | |  |  |  |
   o                 o     /    o o  o  o  o              o         o  /  o o  o  o  o

                           ~~~~~~
   S  S  S  S  S  S  S  S  S  E.     E     T      +S.    +Q    +E   E  E  E    S  S  S  S
|-----------------------------------------20b24==(20)-|-(20)r=(20)-19h20-17---19----17----|
|-----------------------------------------------------|--------------------------20----19-|
|-17S16----16-17--------------------------------------|-----------------------------------|
|-------19-------19-17p16-17-17p====(0)---------------|-----------------------------------|
|-----------------------------------------------------|-----------------------------------|
|-----------------------------------------------------|-----------------------------------|


  C                             B                 E    F#   G     F    E
   Q.                            E       +E       S    S     S    S     E
   |                             |        |       |    |     |    |     |
   o                             o        /       o    o     o    o     o

   |-------6--------|   |------6-------|  |-------5-------|  |-------6--------|
   S   S  S  S  S   S   S  S  S  S  S  S  S  S  S    S    S  S  S    S  S  S  S
|--------------17-(19)-20-19-17----19-17-------17---17-----------------------------|
|-20--17-19-20------------------20-------20-19-----------20-19-17---20-19-17-16----|
|----------------------------------------------------------------------------------|
|----------------------------------------------------------------------------------|
|----------------------------------------------------------------------------------|
|----------------------------------------------------------------------------------|


  C                       B                E       F#   G    F       E
   Q.                     E       +E       S       S    S    S       E
   |                      |        |       |       |    |    |       |
   o                      o        /       o       o    o    o       o

   |-----------10:8-------------|  |----------------11:8------------------|
   S   S  S  S  S  S S  S    S  S  S  S  S    S  S    S    S    S  S   S  S
|---------------------------------------------------------------------------|
|-19--17-16----17p16-----------17h18----------------------------------------|
|-----------19-------x-16---16-------18-17---16-14---17---16---14--------16-|
|-----------------------------------------------------------------17---x----|
|---------------------------------------------------------------------------|
|---------------------------------------------------------------------------|


  C                           B                    E F#G F E
   Q.                          E              +E   S S S S E
   |                           |               |   | | | | |
   o                           o               /   o o o o o

                                          ~~~~~~~~~
   |----------------12:8------------------|
   S   S  S  S  S  S  S  S  S  S  S      +S   +H
|-------------------------------------------------------------|
|-------------------------------------------------------------|
|-14--------14------------------------------------------------|
|-----17-16----17-16-14-17-16-14-13b14==(13)-(13)r------------|
|-------------------------------------------------------------|
|-------------------------------------------------------------|


  B
   Q           Q              H
   |
   o

               |--3--|        |--3--|
   S  S  S  S  S  S  S  S  S  S  S  S  S  S  S S  S S
|-20-17----17-14h17p14-------11h14p11-------11--------|
|----------------------16-------------13-------x------|
|-------20----------------17-------------14------14-x-|
|-----------------------------------------------------|
|-----------------------------------------------------|
|-----------------------------------------------------|


   W
   S  S  S  S  S S  S S  S S S S  S S  S S
|-14-11-------11-8-------8-5-----11-8------||
|-------13-10------10p7\-----7-4------10-7-||
|------------------------------------------||
|------------------------------------------||
|------------------------------------------||
|------------------------------------------||


  Em             C
   Q.              E   +H
   |               |    |
   /               /    /

                   ~~~~~~~~
   Q      +E      +E   +E   S  S  S  S  S  S
|-11b12r=(11)b12-(11)-(11)-12-14-15p14p12s11-|
|--------------------------------------------|
|--------------------------------------------|
|--------------------------------------------|
|--------------------------------------------|
|--------------------------------------------|


  B        B/Eb     Em
   E.       S +E     E    +H
   |        |  |     |     |
   /        /  /     /     /

                                      ~~
   S  S  S  S  S  S  S  S  S  S  S S  Q
|-14p12p11----12p11----------------------|
|----------13-------13-12-10-------------|
|----------------------------12p11p9-12--|
|----------------------------------------|
|----------------------------------------|
|----------------------------------------|


  Em          C
  Q.           E    +H
  |            |     |
  /            /     /

  E   S S S S  S  S  S  S  S  S  S  S  E
|----12p7-----15p12-------19p15-------21b24==|
|---------8---------12----------17-----------|
|-----------9----------12----------16--------|
|--------------------------------------------|
|--------------------------------------------|
|--------------------------------------------|


  B          Em                                         C
    Q.       E         +H            Q.                 E +H
    |        |          |            |                  |  |
    /        /          /            /                  /  /

                        ~~~~
                                         |--3--|
   +Q    +Q     a      +Q    +Q      E   S  S  S  Q.          Q.
|-(21)r=(21)---21b24==(21)--(21)r--|----15h19p15-15tr20------15tr19---|
|----------------------------------|----------------------------------|
|----------------------------------|----------------------------------|
|----------------------------------|----------------------------------|
|----------------------------------|----------------------------------|
|----------------------------------|----------------------------------|


  B                          Em
   Q.                         E       +H
   |                          |        |
   /                          /        /

   T        T        T        T
   |-------------12:8---------------|  |------------12:8--------------|
   S  S  S  S  S  S  S  S  S  S  S  S  S  S  S  S  S S  S  S  S S  S  S
|-17p15p14-17p15p14-15p14p12-15p14p12S10h12h14p12p10S8h10h12p10p8--------|
|-----------------------------------------------------------------12p10p=|
|------------------------------------------------------------------------|
|------------------------------------------------------------------------|
|------------------------------------------------------------------------|
|------------------------------------------------------------------------|


  Em                 C
  Q.                 E     +H
  |                  |      |
  /                  /      /

  |--------12:8----------|  |--------12:8---------|
  S  S S S S S S S S S S S  S S S S S S S S S  S  E
|----7h8p7p5----------------------------------------|
|-8----------8p7p5----------8p7p5---------5p4-------|
|------------------8p7p5s4--------8p7p5s4-----(7)---|
|---------------------------------------------------|
|---------------------------------------------------|
|---------------------------------------------------|


  B               Em
  Q.              E     +H
  |               |      |
  /               /      /

                         \0.5
  |------10:8-------|
  S S S S S S S S   E   +H
|--------------------------------||
|-------------------4b5-(4)------||
|-5p4p2-5p4p2--------------------||
|-------------x-4----------------||
|--------------------------------||
|--------------------------------||


 Interlude
  A5                F          E                 A
  Gtrs I, II
                    ~          PM----------------| PM--------~~
  H.      S S S S   W          E E E E E E E E   E S S E S S Q.    S S
|-----------------|----------|-----------------|------------------------|
|-----------------|----------|-----------------|------------------------|
|-2---------------|----------|-----------------|------------------------|
|-2---------------|----------|-------3-2-------|-------------------3-5--|
|-0-------3-2-----|----------|-----2-----5-3-2-|-------------------5-7--|
|-------------5-3-|-1--------|-0-4-------------|-5-4-5-7-5-7-8----------|
                                                 H           Q   E S S


  F                 E
  Gtr I
  ~~
  H.      S S S S   E S S E S S E S S E S S
|-----------------|-------------------------|
|-----------------|-------------------------|
|-2-------4h5p4-2-|-1-2-1---1---------------|
|-----------------|-------3---3-2-3-2-0-2-0-|
|-----------------|-------------------------|
|-----------------|-------------------------|
|
| Gtr II
| ~~
| H.      S S S S   E S S E S S E S S E S S
|-----------------|-------------------------|
|-----------------|-------------------------|
|---------1h2p1---|-------------------------|
|-3-------------3-|-2-3-2---2---------------|
|-----------------|-------5---5-3-5-3-2-3-2-|
|-----------------|-------------------------|


  A
  |----6----| |----6----| |----6----| |----6----|
  S S S S S S S S S S S S S S S S S S S S S S S S
|---------------------------------------------------|
|---------------------------------------------------|
|---------------------------------------------------|
|---------------------------------------------------|
|-2h3h5p3p2p0-2h3h5p3p2p0-2h3h5p3p2p0-2h3h5p3p2p0---|
|---------------------------------------------------|
|
| W
|---------------------------------------------------|
|---------------------------------------------------|
|---------------------------------------------------|
|---------------------------------------------------|
|---------------------------------------------------|
|-5-------------------------------------------------|


  |----6-----|  |---6----|  |---6----|  |--3---|
  S  S S S S S  S  S S S E  S  S S S E  E  E   E
|------------------------------------------------||
|------------------------------------------------||
|------------------------------------------------||
|------------------------------------x--x--x---x-||
|-2h=3h5p3p2p0--7--x-3p2p0-----------x--x--x---x-||
|---------------------------5p=3p1p0-------------||
|
| \2____________/
| Q            +Q          +Q          +E    E
|------------------------------------------------||
|-0------------(0)---------(0)---------(0)-------||
|------------------------------------------------||
|------------------------------------------------||
|------------------------------------------------||
|------------------------------------------------||


 Guitar Solo
  N.C.
                T     T
   E  S S  S S  S  S  S  S  S  S  S  S  S  S
|--------------------------17h20-20p17-------|
|---------10---------17p13-------------17----|
|-------9----9-17p14----------------------17-|
|----10--------------------------------------|
|-12-----------------------------------------|
|--------------------------------------------|
|
|  W
|--------------------------------------------|
|--------------------------------------------|
|--------------------------------------------|
|--------------------------------------------|
|--------------------------------------------|
|--------------------------------------------|


                                    ~~~~
                                            |--3---|
   E    S  S E  E  E. S  +E   E    +H      +Q   Q  Q
|-20b24---17---19-20p19-(19)-20-|-(20)----(20)-19-17-|
|-------------------------------|--------------------|
|-------------------------------|--------------------|
|-------------------------------|--------------------|
|-------------------------------|--------------------|
|-------------------------------|--------------------|


                      ~~~~              T  T
   E      +Q    +E   +Q   Q    E  E  E  E  E  E  E  E
|-19b20==(19)r=(19)-(19)-----|---12h15h17s19p15p12----|
|----------------------------|---------------------15-|
|----------------------------|------------------------|
|----------------------------|------------------------|
|----------------------------|------------------------|
|----------------------------|------------------------|


    \1/
             ~~~~~~~~
                        |------6-------|
   +Q     S  E.  +E  E  S  S  S  S  S  S
|----------------------------12-16p15p13h|
|-(15)---13s12--(12)------13-------------|
|----------------------14----------------|
|----------------------------------------|
|----------------------------------------|
|----------------------------------------|


   |--------7--------|  |--------7--------|  |-------7--------|  |--------7--------|
   S  S  S  S  S  S  S  S  S  S  S  S  S  S  S  S  S  S  S  S S  S  S  S  S  S  S  S
|-15p13s12-12h13p12p10----------12h13p12p10-------------------------------------------|
|----------------------13p12p10-------------13p12p10------------13p12p10--------------|
|----------------------------------------------------13p12p10px----------13p12p11p10S=|
|-------------------------------------------------------------------------------------|
|-------------------------------------------------------------------------------------|
|-------------------------------------------------------------------------------------|


                                             ~~~~~
  |----------11:8------------|
  S  S S  S  S S  S  S S  S  S S  S S  S  S  E.
|-----------------------------------------------||
|---10p9----------------------------------------||
|-9------12-10p9----10p9------------------------||
|----------------12------12-10p9h10p9-----------||
|-------------------------------------12-11-12--||
|-----------------------------------------------||


 Bass Solo
  N.C.
            >
 ~~~~~~~~~~~~~~                       ~~
   +H      +H       Q  a a H    Q     W
|-----------------|----------------|-------|
|-----------------|----------------|-------|
|-----------------|--------4s===7--|-/9----|
|-----------------|------x---------|-------|
|-(12)----(12)----|----x-----------|-------|
|-----------------|----------------|-------|


  W          E H..          +W
|----------|---0tr1-------|-(0tr1)--------|
|----------|--------------|---------------|
|----------|--------------|---------------|
|----------|--------------|---------------|
|----------|--------------|---------------|
|----------|--------------|---------------|


                             <
  +W              +H        +H
|-(0tr1)--------|-(0tr1)----(0tr1)----|
|---------------|---------------------|
|---------------|---------------------|
|---------------|---------------------|
|---------------|---------------------|
|---------------|---------------------|


  Gtr I
  E S    S S S S S S S S S S S S S    E. S +E  E +E  E E E
|-----------------------------------|----------------------|
|-----------------------------------|----------------------|
|-4-4b5==4-4-4-4-4-4-4-4-4-4-4-4-4r-|-4--------------------|
|-----------------------------------|----7-(7)-6-(6)-3-2-0-|
|-----------------------------------|----------------------|
|-----------------------------------|----------------------|
|
| Gtr II
| E S    S S S E   S S S S E   S S    E. S +E  E +E  E E E
|-----------------------------------|----------------------|
|-----------------------------------|----------------------|
|-----------------------------------|----------------------|
|-7-x----x-x-x-7---x-x-x-x-7---x-x--|-6--3-(3)-2-(2)-------|
|-----------------------------------|----------------5-3-2-|
|-----------------------------------|----------------------|


                                      ~~         ~
  E S    S S S S S S S S S S S S S    E. S +E  E H
|-----------------------------------|-----------------|
|-----------------------------------|-----------------|
|-4-4b5==4-4-4-4-4-4-4-4-4-4-4-4-4r-|-4--2-(2)-1-2----|
|-----------------------------------|-----------------|
|-----------------------------------|-----------------|
|-----------------------------------|-----------------|
|
|                                     ~~         ~
| E S    S S S E   S S S S E   S S    E. S +E  E H
|-----------------------------------|-----------------|
|-----------------------------------|-----------------|
|-----------------------------------|-----------------|
|-7-x----x-x-x-7---x-x-x-x-7---x-x--|-6--3-(3)-6-7----|
|-----------------------------------|-----------------|
|-----------------------------------|-----------------|


  E S    S S S S S S S S S S S S S    E. S +E  E +E  E E E
|-----------------------------------|----------------------|
|-----------------------------------|----------------------|
|-4-4b5==4-4-4-4-4-4-4-4-4-4-4-4-4r-|-4--------------------|
|-----------------------------------|----7-(7)-6-(6)-3-2-0-|
|-----------------------------------|----------------------|
|-----------------------------------|----------------------|
|
| E S    S S S E   S S S S E   S S    E. S +E  E +E  E E E
|-----------------------------------|----------------------|
|-----------------------------------|----------------------|
|-----------------------------------|----------------------|
|-7-x----x-x-x-7---x-x-x-x-7---x-x--|-6--3-(3)-2-(2)-------|
|-----------------------------------|----------------5-3-2-|
|-----------------------------------|----------------------|


                                      ~~         ~
  E S    S S S S S S S S S S S S S    E. S +E  E H
|-----------------------------------|-----------------||
|-----------------------------------|-----------------||
|-4-4b5==4-4-4-4-4-4-4-4-4-4-4-4-4r-|-4--2-(2)-1-2----||
|-----------------------------------|-----------------||
|-----------------------------------|-----------------||
|-----------------------------------|-----------------||
|
|                                     ~~         ~
| E S    S S S E   S S S S E   S S    E. S +E  E H
|-----------------------------------|-----------------||
|-----------------------------------|-----------------||
|-----------------------------------|-----------------||
|-7-x----x-x-x-7---x-x-x-x-7---x-x--|-6--3-(3)-6-7----||
|-----------------------------------|-----------------||
|-----------------------------------|-----------------||


  (B)
          ~~~~~~                        ~
  e S S E E +S  S S S S S S S   e S S E E +S  S S S S S S S
|-----------------------------|-----------------------------|
|-----------------------------|-----------------------------|
|-----4---5-(5)-4p2-----------|-----4---5-(5)-4p2-----------|
|-------------------5-4-2-1---|-------------------5-4-2-1---|
|-2-------------------------3-|-2-------------------------3-|
|-----------------------------|-----------------------------|


  PM      ~~~~~~                PM      ~~~~~~
  E S S E E +S  S S S S S S S   E S S E E +S  S S S S S S S
|-----------------------------|-----------------------------|
|-----------------------------|-----------------------------|
|-----8---9-(9)-8p5-----------|-----8---9-(9)-8p5-----------|
|-------------------9-7-5-----|-------------------9-7-5-----|
|-6-----------------------9-7-|-6-----------------------9-7-|
|-----------------------------|-----------------------------|
|
| Gtr II
| PM      ~                     PM      ~
| E S S E E +S  S S S S S S S   E S S E E +S  S S S S S S S
|-----------------------------|-----------------------------|
|-----------------------------|-----------------------------|
|-----4---5-(5)-4p2-----------|-----4---5-(5)-4p2-----------|
|-------------------5-4-2-1---|-------------------5-4-2-1---|
|-2-------------------------3-|-2-------------------------3-|
|-----------------------------|-----------------------------|


  PM      ~~~~~~                PM      ~~~~~~
  E S S E E +S  S S S S S S S   E S S E E +S  S S S S S S S
|-----------------------------|--------------------------------|
|-----------------------------|--------------------------------|
|-----8---9-(9)-8p5-----------|-----8---9-(9)-8p5--------------|
|-------------------9-7-5-----|-------------------9-7-5--------|
|-6-----------------------9-7-|-6-----------------------9-7----|
|-----------------------------|--------------------------------|
|
| PM      ~                     PM      ~
| E S S E E +S  S S S S S S S   E S S E E +S  S S S S S S S
|-----------------------------|--------------------------------|
|-----------------------------|--------------------------------|
|-----4---5-(5)-4p2-----------|-----4---5-(5)-4p2--------------|
|-------------------5-4-2-1---|-------------------5-4-2-1------|
|-2-------------------------3-|-2-------------------------3----|
|-----------------------------|--------------------------------|


  B5           B5      C5
  Q  H.        Q  Q.   Q.
|------------|--------------|
|------------|--------------|
|------------|--------------|
|-4----------|-4-------5----|
|-2----------|-2-------3----|
|------------|--------------|
|
| Q  H.        Q  Q.   Q.
|------------|--------------|
|------------|--------------|
|-4----------|-4-------5----|
|-4----------|-4-------5----|
|-2----------|-2-------3----|
|------------|--------------|


  B5
               |--3--|  |--------7--------|  |--3--|
  E a  E  +E   S  S  S  S  S  S  S  S  S  S  S  S  S  E
|---xS20-(20)p19p17--------------------------------------||
|-------------------20-19-17-----------------------------||
|----------------------------20-19-17-16-----------------||
|----------------------------------------19-17-16--------||
|-------------------------------------------------19-18\-||
|--------------------------------------------------------||
|
| Q        H.
|--------------------------------------------------------||
|--------------------------------------------------------||
|-4------------------------------------------------------||
|-4------------------------------------------------------||
|-2------------------------------------------------------||
|--------------------------------------------------------||


  N.C.                      C5B5
  Gtrs I, II
  PM--|             PM----|       PM--|             PM----|
  S S S T T S S S S S S S S E E   S S S T T S S S S S S S S S S S S
|-------------------------------|-----------------------------------|
|-------------------------------|-----------------------------------|
|-------------------------------|-----------------------------------|
|-------1h2p1-------1-------5-4-|-------1h2p1-------1---------------|
|-0-2-3-------3-2-0---3-2-0-3-2-|-0-2-3-------3-2-0---3-2-0---------|
|-------------------------------|---------------------------3-2-0-2-|


                            C5B5
  PM--|             PM----|
  S S S T T S S S S S S S S E E
|--------------------------------|
|--------------------------------|
|--------------------------------|
|-------1h2p1-------1-------5-4--|
|-0-2-3-------3-2-0---3-2-0-3-2--|
|--------------------------------|


  N.C.
  PM--|             PM----|
  S S S T T S S S S S S S S S S S S
|-----------------------------------|
|-----------------------------------|
|-----------------------------------|
|-------1h2p1-------1---------------|
|-0-2-3-------3-2-0---3-2-0---------|
|---------------------------3-2-0-2-|


  PM--|             PM----|       PM--|             PM----| ~
  S S S T T S S S S S S S S E E   S S S T T S S S S S S S S E E
|-------------------------------|--------------------------------|
|-------------------------------|--------------------------------|
|-------------------------------|--------------------------------|
|-------1h2p1-------1-----------|--------------------------------|
|-0-2-3-------3-2-0---3-2-0-3-2-|-------1h2p1-------1------------|
|-------------------------------|-0-2-3-------3-2-0---3-2-0-3-2--|


  PM--|              ~~
  S S S T T S S S S  Q                 Q
|-------------------------------------------------------|
|-------------------------------------------------------|
|-------------------------------------------------------|
|-------------------------------------------------------|
|-------1h2p1-------------------------------------------|
|-0-2-3-------3-2-0--2----------------------------------|
|
| Gtr II
|                    |-------------12:8---------------|
| H                  S  S  S  S  S  S  s  S  S  S  S  S
|----------------------------------------------15-17-19-|
|-------------------------------------16-17-19----------|
|----------------------------16-17-19-------------------|
|-------------------16-17-19----------------------------|
|-------------------------------------------------------|
|-------------------------------------------------------|


  PM--|             PM----| ~     PM--|
  S S S T T S S S S S S S s E E   S S S T T S S S S q  Q
|-------------------------------|---------------------------||
|-------------------------------|---------------------------||
|-------------------------------|---------------------------||
|-------------------------------|---------------------------||
|-------1h2p1-------1-----------|-------1h2p1---------------||
|-0-2-3-------3-2-0---3-2-0-3-2-|-0-2-3-------3-2-0-2-------||
|
| W                               W
|-------------------------------|---------------------------||
|-------------------------------|---------------------------||
|-------------------------------|---------------------------||
|-------------------------------|---------------------------||
|-------------------------------|---------------------------||
|-------------------------------|---------------------------||


 Verse
  B5     C5                B5     A5
               PM|   PM|
  E. S E E +E  S S E S S   E. S E E +E  S S S S S S
|------------------------|--------------------------|
|------------------------|--------------------------|
|------------------------|--------------------------|
|-4--4---5-(5)-----5-----|-4--4---2-(2)-------------|
|-2--2---3-(3)-0-0-3-0-0-|-2--2---0-(0)-3p2---------|
|------------------------|------------------5p3p2p0-|


  B5     C5                B5     A5
               PM|   PM|
  E. S E E +E  S S E S S   E. S E E +Q.   S S
|------------------------|---------------------|
|------------------------|---------------------|
|------------------------|---------------------|
|-4--4---5-(5)-----5-----|-4--4---2-(2)--------|
|-2--2---3-(3)-0-0-3-0-0-|-2--2---0-(0)--------|
|------------------------|----------------0-2--|


  N.C.
                 ~~~                       ~~~
  E S S +S  S E +Q.   S S   E S S +S  S E +Q.   S S
|-------------------------|-------------------------|
|-------------------------|-------------------------|
|-------------------------|-------------------------|
|-------------------------|-1-----------------------|
|---------------------2-3-|---3-2-(2)-3-2-(2)-------|
|-3-2-0-(0)-3-2-(2)-------|---------------------0-2-|


                                        B5
                 ~~~
  E S S +S  S E +Q.   S S   E S S +S  S E H
|-------------------------|--------------------||
|-------------------------|--------------------||
|-------------------------|--------------------||
|-------------------------|-1-----------4------||
|---------------------2-3-|---3-2-(2)-3-2------||
|-3-2-0-(0)-3-2-(2)-------|--------------------||


  B
  Gtr II
   Q                  Q                     H
   |
   /

  Gtr I
   T     T       T       T       T     T       T     T       T     T       T     T
   |----------------14:8------------------| |---------------14:8-----------------|
   S  S  S  S S  S  S    S  S S  S  S  S  S S  S  S  S  S S  S  S  S  S S  S  S  S
|-----------------------------------------------------------------------------------|
|-12p10-12p10p7-13p10---13p10p7-16p10-16p10p7-13p10-13p10p7-12p10-12p10p7-13p10-13p=|
|-----------------------------------------------------------------------------------|
|-----------------------------------------------------------------------------------|
|-----------------------------------------------------------------------------------|
|-----------------------------------------------------------------------------------|


   W
        T     T       T       T     T       T     T       T     T              T
   |---------------14:8----------------| |------------------14:8-------------------|
   S S  S  S  S  S S  S  S S  S  S  S  S S  S  S  S  S S  S  S  S  S S  S      S  +S
|--------------------------------------------------------------------------------------||
|-10p7-16p10-16p10p7-17p10p7-16p10-16p10p7-17p10-17p10p7-19p10-19p10p7h10b12==20-(20)--||
|--------------------------------------------------------------------------------------||
|--------------------------------------------------------------------------------------||
|--------------------------------------------------------------------------------------||
|--------------------------------------------------------------------------------------||


  C             B      E      F#G    F#E5
    Q.          E +E    S     S   S  S E
    |           |  |    |     |   |  | |
    /           /  /    o     o   o  o /

        ~~~~~~~~
   +S   E.  +Q     E    E        +Q
|----------------------------------------|
|-(20)-10--(10)---\xr/-19b20====(19)-----|
|----------------------------------------|
|----------------------------------------|
|----------------------------------------|
|----------------------------------------|


  C           B       E  F# G     F#   E5
    Q.        E +E     S  S  S    S     E
    |         |  |     |  |  |    |     |
    /         /  /     o  o  o    o     /

    |---3---|                |-------6--------|
   +Q   Q   Q    S  S  S  S  S  S    S  S  S  S
|------------------------17-19-20p==19p17----18-|
|-(19)-19r-19---17-19-20------------------20----|
|-----------------------------------------------|
|-----------------------------------------------|
|-----------------------------------------------|
|-----------------------------------------------|


  C                           B                 E     F#   G     F#   E5
   Q.                          E       +E        S    S     S    S     E
   |                           |        |        |    |     |    |     |
   /                           /        /        o    o     o    o     /

   |--------------12:8---------------|  |---------------12:8-----------------|
   S   S  S  S  S  S  S  S  S  S  S  S  S  S  S  S  S    S  S  S    S  S  S  S
|-17--------17-----------------------------------------------------------------|
|-----20-19----20-18-17-20-19-17-16-19-17-16-------19---17-16------------------|
|--------------------------------------------17p16------------17p==16----------|
|---------------------------------------------------------------------19p17p16-|
|------------------------------------------------------------------------------|
|------------------------------------------------------------------------------|


  C                     B         E F#G F#E5
   Q.                    E    +E  S S S S  E
   |                     |     |  | | | |  |
   /                     /     /  o o o o  /

                               ~~~
   |-------6-------|
   S   S  S  S  S  S  E  S  S  Q.          E
|-----------------------------------------21b24---|
|-------------------------------------------------|
|-16----------------------------------------------|
|-----19-17-16s14-16-14---------------------------|
|-----------------------17p15-14------------------|
|-------------------------------------------------|


  C                         B                 E     F#   G  F#   E5
    Q.                       E       +E        S    S     S S     E
    |                        |        |        |    |     | |     |
    /                        /        /        o    o     o o     /

                                                          ~~
    |-----6------|  |------6-------|  |-------6--------|  |------6------|
   +E   S  S  S  S  S  S  S  S  S  S  S  S  S  S  S    S  E    S  S  S  S
|-(21)-17-19-20-19-17-----------------------------------------------------|
|---------------------20-19-17--------------------------------------------|
|------------------------------20-19-17-16--------------------------------|
|------------------------------------------19p17p16-----------------------|
|-----------------------------------------------------19-18---18h19p18h19-|
|-------------------------------------------------------------------------|


  C                       B                E     F#   G     F#   E5
   Q.                      E      +E        S    S     S    S    E
   |                       |       |        |    |     |    |    |
   /                       /       /        o    o     o    o    /

   |-----6-----|  |------6------|  |-------6--------|  |-------5-------|
   S  E  S  S  S  S  S  S  S  S S  S  S  S  S  S    S  S  S    S    S  S
|-----------------------------------------------------15-19h==20p==19p17-|
|------------------------------------------16h17h==19--------------------|
|----------------------16h17p16---16h17h19-------------------------------|
|-------16h17p16h17h19---------------------------------------------------|
|-18---------------------------------------------------------------------|
|------------------------------------------------------------------------|


  C         B            E F#G F#E5
   Q.        E       +E  S S S S   E
   |         |        |  | | | |   |
   /         /        /  o o o o   /

   ~~~~~~~~~          ~~~
             |--3--|
   Q    +E   S  S  S  Q.           E
|-19---(19)----------------------/20-|
|-----------20p19p17s16--------------|
|------------------------------------|
|------------------------------------|
|------------------------------------|
|------------------------------------|


  C                   B                 E     F#   G  F#E5
    Q.                 E       +E        S    S     S S E
    |                  |        |        |    |     | | |
    /                  /        /        o    o     o o /

                                                    ~~
        |--3--|        |--3--|  |-------6--------|
   +E   S  S  S  S  S  S  S  S  S  S  S  S  S    S  Q
|-(20)-19-17-19----17--------------------------------------|
|---------------20----20p19p17-16h17h19p17p16--------------|
|-----------------------------------------------17-16------|
|----------------------------------------------------------|
|----------------------------------------------------------|
|----------------------------------------------------------|


  B
  Q           Q                 H
  |
  /

     |--3--|  |------6-------|  |----------10:8------------|
  E  S  S  S  S  S  S  S  S  S  S  S  S  S  S  S  S  S  S  S
|------------17-19-20-19-17----19-17-------17----------------|
|---17-19-20----------------20-------20-19----20-19-17-20-19-|
|------------------------------------------------------------|
|------------------------------------------------------------|
|------------------------------------------------------------|
|------------------------------------------------------------|


   W
   |----------10:8------------|  |-----5-----|  |------6-------|
   S  S  S  S  S  S  S  S  S  S  S  S  S  S  S  S  S  S  S  S  S
|------------------------------------------------------------------||
|-17s16-19-17-16----17-16----------16------------------------------||
|----------------17-------17p16h17----17p16----17-16-------16------||
|-------------------------------------------19-------19-17----19---||
|------------------------------------------------------------------||
|------------------------------------------------------------------||


  Em       C                 C
   Q.                         E      +H
   |                          |       |
   /                          /       /

  Gtr I
   |------6-------|  |------6------|  |------6------| |------6-------|
   S  S  S  S  S  S  S  S  S  S  S S  S  S S  S  S  S S  S  S  S  S  S
|--------------------------------------------15p12------19p15-------20p=|
|------------------------------------17p12---------12---------17--------|
|------------------------------------------x----------x----------16-----|
|-17p16-19-17p16s14-17p16p14-17p16px------------------------------------|
|-----------------------------------------------------------------------|
|-----------------------------------------------------------------------|


  B                          Em
   Q.                         E       +H
   |                          |        |
   /                          /        /

   |------6-------|  |------6-------|  |-----3-----|
   S  S  S  S  S  S  S  S  S  S  S  S  Q     Q     Q
|-19p17----19p17----------17----------21b24-21b24-21b24===|
|-------20-------20p19h20----20p19p17---------------------|
|---------------------------------------------------------|
|---------------------------------------------------------|
|---------------------------------------------------------|
|---------------------------------------------------------|


                C
    Q.           E     +H
    |            |      |
    /            /      /

                        ~~~~
   +E   +Q       E     +Q.    E
|-(21)r(21)b23--21b23-(21)---20b22r=|
|-----------------------------------|
|-----------------------------------|
|-----------------------------------|
|-----------------------------------|
|-----------------------------------|


  B                   Em
    Q.                 E    +H
    |                  |     |
    /                  /     /

   +E       E     +E   S  S  S  S  S  S  S  S  S  S
|-(20)pb22-20b22r(20)-19h20-17h20-15h20-14h20-12h20-|
|-------------------------------------------------x-|
|---------------------------------------------------|
|---------------------------------------------------|
|---------------------------------------------------|
|---------------------------------------------------|


                              C
   Q.                          E         +H
   |                           |          |
   /                           /          /

                                          ~~~
   S   T  T  T  T  T  T  S  S  S     +S   Q.    E
|-----------17-19p15------------------------------|
|-16--17-19----------19-17------------------------|
|--------------------------16-14b16-(14)-14----/x-|
|-------------------------------------------------|
|-------------------------------------------------|
|-------------------------------------------------|


  B                       Em
   Q.                      E    +H
   |                       |     |
   /                       /     /

   |------6-------|              |-----6-----|  |-----5------|
   s  S  S  S  S  S  S  S  S  S  E  S  S  S  S  S  S  S  S   S
|-12-------------13-15p12-14----12------------------------------|
|-------12-13-15-------------15----15p13p12----12h13p12----(12)-|
|-------------------------------------------14----------14---x--|
|---------------------------------------------------------------|
|---------------------------------------------------------------|
|---------------------------------------------------------------|


  Em                     C
   Q.                     E    +H
   |                      |     |
   /                      /     /

                                ~~
   |------6------|                 |----6----|
   S  S  S  S  S S  S  S  S  S  Q  S S S S S S
|------------------------------------5h7h8p7p5-|
|----------------------------------------------|
|-14p12s11---------11h12p11----11--------------|
|----------14p12hx----------14-----------------|
|----------------------------------------------|
|----------------------------------------------|


  B            Em
  Q.           E   +H
  |            |    |
  /            /    /

                            |----6----|
  S  S S S S S S S  S S S S S S S S S S
|-----------------------------------------||
|-8--7-5-4--------------------------------||
|----------7-5-4--------------------------||
|----------------7--5-4-------------------||
|-----------------------7-6-3p2p0---------||
|---------------------------------3p2p0---||


  A5                 F                               E
  Gtrs I, II
                                                     PM------------|
  H.      S S S S    S S S S S S S S S S S S  Q      E E E E E E E E
|-----------------||------------------------------||------------------|
|-----------------||------------------------------||------------------|
|-2---------------||------------------------------||------------------|
|-2---------------||------------------------------||-------3-2--------|
|-0-------3-2-----||-------------------------/x\--||-----2-----5-3-5--|
|-------------5-3-||-1-1-1-1-1-1-1-1-1-1-1-1------||-0-4--------------|


  A                      F                 E
  Gtr I
  PM--------| ~~         ~~                PM----------|
  E S S E S S q.   S S   H.      S S S S   E S S E S S Q  S S S S
|----------------------|-----------------|------------------------|
|----------------------|-----------------|------------------------|
|----------------------|-2-------4h5p4-2-|-1-2-1---1------4h5p4h5-|
|------------------3-5-|-----------------|-------3---3-2----------|
|----------------------|-----------------|------------------------|
|-5-4-5-7-5-7-8--------|-----------------|------------------------|
|
| Gtr II
| PM--------| ~~         ~~                PM----------|
| E S S E S S q.   S S   H.      S S S S   E S S E S S q  S S S S
|----------------------|-----------------|------------------------|
|----------------------|-----------------|------------------------|
|----------------------|---------1h2p1---|----------------1h2p1---|
|----------------------|-3-------------3-|-2-3-2---2------------3-|
|------------------5-7-|-----------------|-------5---5-3----------|
|-5-4-5-7-5-7-8--------|-----------------|------------------------|


  E                                                  D
  PM--------|              PM--------------------|   ~
  E S S E S S Q  S S S S   E S S E S S E S S E S S   Q  Q  H
|------------------------|-------------------------|------------*|
|------------------------|-------------------------|------------*|
|-1-2-1---1------4h5p4-2-|-1-2-1---1---------------|------------*|
|-------3---3-2----------|-------3---3-2-3-2---2---|------------*|
|------------------------|-------------------5---5-|-3----------*|
|------------------------|-------------------------|------------*|
|
| PM--------|                                        ~
| E S S E S S Q  S S S S   E S S E S S E S S E S S   Q  Q  H
|------------------------|-------------------------|------------*|
|------------------------|-------------------------|------------*|
|----------------1h2p1---|-------------------------|------------*|
|-2-3-2---2------------3-|-2-3-2---2---------------|------------*|
|-------5---5-3----------|-------5---5-3-5-3-2-3-2-|-5----------*|
|------------------------|-------------------------|------------*|



Duration Legend
---------------
W - whole; H - half; Q - quarter; E - 8th; S - 16th; T - 32nd; X - 64th; a - acciaccatura
+ - note tied to previous; . - note dotted; .. - note double dotted
Uncapitalized letters represent notes that are staccato (1/2 duration)
Irregular groupings are notated above the duration line
Duration letters will always appear directly above the note/fret number it represents the
duration for.  Duration letters with no fret number below them represent rests.  Multi-
bar rests are notated in the form Wxn, where n is the number of bars to rest for.  Low
melody durations appear below the staff

Tablature Legend
----------------
 h   - hammer-on
 p   - pull-off
 b   - bend
 pb  - pre-bend
 r   - bend release (if no number after the r, then release immediately)
 /\  - slide into or out of (from/to "nowhere")
 s   - legato slide
 S   - shift slide
 - natural harmonic
[n]  - artificial harmonic
n(n) - tapped harmonic
 ~   - vibrato
 tr  - trill
 T   - tap
 TP  - trem. picking
 PM  - palm muting
\n/  - tremolo bar dip; n = amount to dip
 \n  - tremolo bar down
 n/  - tremolo bar up
/n\  - tremolo bar inverted dip
 =   - hold bend; also acts as connecting device for hammers/pulls
 <> - volume swell (louder/softer)
 x   - on rhythm slash represents muted slash
 o   - on rhythm slash represents single note slash

Misc Legend
-----------
 |  - bar
||  - double bar
||o - repeat start
o|| - repeat end
*|  - double bar (ending)
 :  - bar (freetime)
 $  - Segno
 &  - Coda
Tempo markers -  = BPM(8/16=s8/s16), where s8 = swing 8ths, s16 = swing 16ths

Tap to rate this tab
 
# A B C D E F G H I J K L M N O P Q R S T U V W X Y Z