Song name
# A B C D E F G H I J K L M N O P Q R S T U V W X Y Z

Mana - Muelle De San Blas tab

Amigos este es mi version de muelle de san blas de el grupo mana,, por mi parte esta 
bien si se usa una gitarra con cuerdas metalicas ,, pero i tienes de nylon se escuchara muy bien...

.----------0---------/----------0--------/-------------------/----------3-----|
.------3-------3-----/------2-------2----/----------3--------/------0-------0-|
.----0---0---0---0---/----0---0---0---0--/------2-------2----/----0---0---0---|
.--2-----------------/-------------------/----0---0---0---0--/----------------|
.--------------------/--0----------------/-------------------/----------------|
.--------------------/-------------------/--0----------------/--3-------------|

.----------3------/
.------0-------2--/
.----0---0---0----/
.-----------------/
.-----------------/
.--3--------------/

luego sigue este arpegio durante toda la cancion

.----------7---------/-----------5--------/----------5--------/
.------8--------8----/-------5-------5----/------5-------5----/
.----9---9----9---9--/-----6---6---6---6--/----7---7---7---7--/
.--------------------/--------------------/--0----------------/
.--------------------/--0-----------------/-------------------/
.--0-----------------/--------------------/-------------------/

.----------3----2----"       FIN
.------3----------3--"
.----4---4---4-------"
.--------------------"
.--------------------"
.--0-----------------"

Manuel Tamayo
Caracas Venezuela
manuelt84@hotmail.com
Tap to rate this tab
# A B C D E F G H I J K L M N O P Q R S T U V W X Y Z