Song name
# A B C D E F G H I J K L M N O P Q R S T U V W X Y Z

Mana - Vivir Sin Aire tab

HoLa SOi ALan i Esta KanCIon Se La DEdICo AMi Niña Rmo0Za !!!!


e|-----------------------------------------|
b|-----------------------------------------|
G|----------T-E-----A-M-O-------R-U-B-I----|
D|-----------------------------------------|
A|-----------------------------------------|
E|-----------------------------------------|


G           Bm            C             D7
e|---3-------5----2-----2-------0-----0--------2-----2-----|
B|------3-----------3-----3-------1-----1--------1-----1---|
G|--------4-----------4-----4-------0-----0--------2-----2-|
D|---------------------------------------------0-----------|
A|-----------5----2-------------3--------------------------|
E|---3-----------------------------------------------------|


En las partes en que se canta va similar, solo cambia un poco el G:

  G              Bm            C
                                             D7
e|-3------3-------2------2------0-----0--------2------2-----------------------|
B|----3-----3--------3-----3------1-----1--------1------1---------------------|
G|------4-----4--------4-----4------0-----0--------2------2-------------------|
D|---------------------------------------------0------------------------------|
A|----------------2-------------3---------------------------------------------|
E|-3--------------------------------------------------------------------------|

Despues en los coros se rasguean estos acordes

Em C  D  G  y en de verso por medio Em C D

G          Bm C  D7            G     Bm C D7
 Como quisiera poder vivir sin aire
G          Bm C  D7            G     Bm C D7
 Como quisiera poder vivir sin agua
G          Bm C   D7            G     Bm C D7
 Me encantaria quererte un poco menos
G          Bm C  D7            G     Bm C D7
 Como quisiera poder vivir sin ti

C         D    Em           C
  Pero no puedo, siento que muero
G                          D
  Me estoy ahogando sin tu amor

Em             C                G   D/F#
 Como quisiera poder vivir sin aire
Em             C                   D
 Como quisiera calmar mi aflicción
Em             C                 G   D/F#
 Como quisiera poder vivir sin agua
Em             C             G  D
Me encantaria robar tu corazón


e|-3------2----------------------|
B|---3---------------------------|
G|-----2-------------------------|
D|-------------------------------|
A|-------------------------------|
E|-------------------------------|

G         Bm C   D7            G    Bm C D7
 Como pudiera un pez nadar sin agua
G         Bm C   D7            G     Bm C D7
 Como pudiera un ave volar sin alas
G         Bm C   D7              G      Bm C D7
 Como pudiera la flor crecer sin tierra
G        Bm  C  D7            G     Bm C D7
 Como quisiera poder vivir sin ti

C         D    Em           C
  Pero no puedo, siento que muero
G                          D
  Me estoy ahogando sin tu amor

Em             C                G   D/F#
 Como quisiera poder vivir sin aire
Em             C               D
 Como quisiera calmar mi aflicción
Em             C                G   D/F#
 Como quisiera poder vivir sin agua
Em             C            D
 Me encantaria robar tu corazón

Em             C              G   D/F#
 Como quisiera lanzarte al olvido
Em             C                 D
 Como quisiera guardarte en un cajón
Em             C                 G   D/F#
 Como quisiera borrarte de un soplido
Em             C              D
 Me encantaria matar esta canción


_______________________________________________________


Verso 2
-======-

         G             D
e|---------3----3---|-------------2---------------|
b|------------------|------3---------3-----3------|
G|----------0-------|---------2---------2---------|
D|-----0------------|--0--------------------------|
A|-------2----------|-----------------------------|
E|--3-----------3---|-----------------------------|

       Bm                     C

e|------------2---------|------------------------|
b|--2/3----------3------|-------1----------------|
G|-------4----------4---|-----------0------------|
D|----------------------|---------------2--------|
A|-------2--------------|--2h3-------------------|
E|----------------------|------------------------|

 G D Bm e :

   C                      C              D
e|----------------------|------------------------|
b|---------1------------|-----------1------------|
G|------------0---------|--------------0---------|
D|---------------2------|-----------------0------|
A|--2h3-----------------|--2h3-------------------|
E|----------------------|------------------------|

    D4     D      D4     D

e|--3--3---2--2---3--3---2--2------------------|
b|--3--3---3--3---3--3---3--3------------------|
G|--2--2---2--2---2--2---2--2------------------|
D|---------------------------------------------|
A|---------------------------------------------|
E|---------------------------------------------|

 G D Bm e:

   C      Bm       C         G
e|------------------------------------------------|
b|------------------------------------------------|
G|---4h5----4-------4h5---------------------------|
D|----------------------------5-------------------|
A|--3-------2-------3-----------------------------|
E|----------------------------3-------------------|

   Bm           C     G   G    D   Em
e|----------------------------------------------|
b|------2h3------5-----3---3----7---8-----------|
G|----------------------------------------------|
D|----------------------------------------------|
A|--2------------3-----5---5----5---7-----------|
E|----------------------------------------------|

 G D Bm e:

   Bm      C       G     D   Em
e|----------------------------------------------|
b|--3/5---5---5---3---3---7---8-----------------|
G|----------------------------------------------|
D|----------------------------------------------|
A|--2/3---3---3---5---5---5---7-----------------|
E|----------------------------------------------|

   C      Bm   G   D   Em  C
e|-------------------------------------------|
b|--5--3---3----3---7---8---5---5---3---3----|
G|-------5---------------------------------5-|
D|-------------------------------------------|
A|--3------2----5---5---7---3----------------|
E|-------------------------------------------|
 G (pestana)


         (pr intro)

Cómo quisiera poder vivir sin aire

         (Part Um)

Cómo quisiera poder vivir sin agua

          (part dois)

Me encantaría quererte um poco menos


  Em            C           G    D
Cómo quisiera poder vivir sin aire

  Em            C           G     D
Cómo quisiera calmar mi afliccíón

Em              C        G
Cómo quisiera poder vivir sin agua

Em             C          G      D
me encantaría robar tu corazón
Tap to rate this tab
# A B C D E F G H I J K L M N O P Q R S T U V W X Y Z