Song name
# A B C D E F G H I J K L M N O P Q R S T U V W X Y Z

Mando Diao - Amsterdam tab

Intro:

E-------------------|
B-------------------|
G-7---7-5---5-7-5---| x16
D---------7---------|
A-------------------|
E-------------------|


Verse:

Dm
I was down in Amsterdam
Almost hurt myself to death
   C
I pushed myself so hard
              Dm
Just like the redlight girls
     Dm
Well I cried and stopped to smile
I thought that my career is over
         C                               Dm
And the dealer boys they had to bring me water
F               Dm
I stumbled over mountains
F                      Dm
And the shadows of the street
F               Dm
I fell into the river
  A
I cried and and begged for mercy
And I talked to god on the telephone


Chorus:

      F                             C
But I really can't tell you what he told me
              Dm
But it was a lie
      F                             C
No I really can't tell you what he told me
              Dm
But it was a lie


Verse:

     Dm
When I came to in Amsterdam
The hotel showed a movie
     C                               Dm
With Marlon Brando and his friend Pacino
     Dm
Well I thought that this is nice
And I'm sure I can relax now
    C                             Dm
But suddenly the room was full of demons
F                     Dm
I escaped through the window
F                   Dm
Almost ran a mile away
F                Dm
I had nowhere to go
     A
So I cried and I begged for mercy
And I talked to god on the telephone


Chorus:

      F                             C
But I really can't tell you what he told me
              Dm
But it was a lie
      F                             C
No I really can't tell you what he told me
             Dm
But it was a liiie


Solo

E|-----------------------------8-10-----------------------------------|
B|------------68-10---------10------10-------10-8-6-------------6-----|
G|7---------7---------------------------------------7--------757-7----|
D|--------------------------------------------------------------------|
A|--------------------------------------------------------------------|
E|--------------------------------------------------------------------|

E|-----------------------8-10-----------------------------------------|
B|------68-10---------10------10-------10-8-6-------------------------|
G|----7---------------------------------------7-----7/8^--------------|
D|--------------------------------------------------------------------|
A|--------------------------------------------------------------------|
E|--------------------------------------------------------------------|


Bridge:

    Gm
But nothing seems to matter
        Dm
In this lonesome dirty town
    A
But for a short brief moment
  Dm                  D7
I thought she was the one
    Gm
And she and I were fighting
      Dm
About sex, love and TV
       A
That's why I had to get down and talk
To god on the telephone


Chorus:

      F                             C
But I really can't tell you what he told me
              Dm
But it was a lie
      F                             C
No I really can't tell you what he told me
             Dm
But it was a li-i-ie

End.

In verses you can play a kind of this
E-8-------|
B---10----|
G------10-| x5
D---------|
A---------|
E---------|
instead of just F

^ = Bend 
/ = Slide

See ya!
Tap to rate this tab
# A B C D E F G H I J K L M N O P Q R S T U V W X Y Z