Mandy Moore Zachary Levi - I See The Light chords

Highlighted       Show chord diagrams
Song Title		:	I See the Light
Performed By	:	Mandy Moore and Zachary Levi
OST			:	Tangled
Tuning		:	F-A#-D#-G#-C-f [Standard + Capo on 1st fret]
Transcribed By	:	Angelino C. Estandian Jr.
Mobile No.		:	+639163981421
Email			:	acetangent@yahoo.com


Note(s)		:	All chords and notes are relative to capo


Intro			:

     C				C
 f|-------------0----------|-------------3----0---|
 C|--------1---------1-----|--------1-------------|
G#|------0----0----0---0---|------0----0----0-----|
D#|------------------------|----------------------|
A#|--3---------------------|--3-------------------|
 F|------------------------|----------------------|

     C				C
 f|-------------0----------|-------------3--------|
 C|--------1---------1-----|--------1----------1--|
G#|------0----0----0---0---|------0----0----0-----|
D#|------------------------|----------------------|
A#|--3---------------------|--3-------------------|
 F|------------------------|----------------------|

				C
Verse 1 [Mandy]	:	All those days
				C
Watching from the windows
				C
All those years
				C
Outside looking in
F
All that time
Em		Am
Never even knowing
C	   Dm/F        Gsus-G
Just how blind Iíve been

				C
Verse	2 [Mandy]	:	Now Iím here
				C
Blinking in the starlight
				C
Now Iím here
				C
Suddenly I see
F
Standing here
Em
Itís all so clear
     Am        Dm/F     G
Iím where Iím meant to be

				      F		  C
Chorus [Mandy]	:	And alas I see the light
					   G		G/B     C         
				And itís like the fog has lifted
					F		  C
				And alas I see the light
					    E7		  Am
				And itís like the sky is new
					    F			    C
				And itís warm and real and bright
					   E7			   Am     [pause]
				And the world has somehow shifted
				C
All at once
				C
				Everything looks different
				F	   G	    C
				Now that I see you

Instrumental	:	C-C-C-C
				F-EmĖAm-C-Dm/F-G  
				G#

				D#
Verse	3 [Zachary]	:	All those days
				D#
				Chasing down a daydream
				D#
				All those years
				D#
				Living in a blur
				G#
				All that time
				Gm		 Cm
				Never truly seeingÖ
				  D#        G#       A#
				Öthings the way they were
				
				D#
Verse	4 [Zachary]	:	Now sheís here
				D#
				Shining in the starlight
				D#
				Now sheís here
				D#
				Suddenly I know
				G#
				If sheís here
					Gm
				Itís crystal clear
				     Cm		    A#
				Iím were I'm meant to go


				      G#		 D#
Chorus [Duet]	:	And alas I see the light
					   A#		     	   D#         
				And itís like the fog has lifted
					G#		 D#
				And alas I see the light
					    G7		  Cm
				And itís like the sky is new
					    G#		    D#
				And itís warm and real and bright
					   G7			   Cm
				And the world has somehow shifted [pause]
				D#
All at once
				D#
				Everything is different
				G#	   A#	    D#
				Now that I see you

				
				G#	   A#	    D#
Coda [Duet]		:	Now that I see you

Tap to rate this tab
 
# A B C D E F G H I J K L M N O P Q R S T U V W X Y Z