Song name
# A B C D E F G H I J K L M N O P Q R S T U V W X Y Z

Manic Street Preachers - Removables tab

                                   REMOVABLES
                      As recorded by Manic Street Preachers
                    (From the 1996 Album EVERYTHING MUST GO)

Words by Richey James

Music by James Dean Bradfield, Sean Moore & Nicky Wire
Arranged by Manic Street Preachers
Transcribed by stuartcoleman

Gtr I (E A D G B E) - 'Gtr. 1: Elec. w/clean tones'
Gtr II (E A D G B E) - 'Gtr. 2: Elec. w/light dist.'

   Intro:
    Q=112
    A        F#m           C           E
   4/4
    Gtr I
    Q  E S S S S E E S S   S S E E S S S S E E S S  4x
||-----------2-2-2-2-x-x-|-------------0-0-0-0-0-0--||
||o-2--2-x-x-2-2-2-2-x-x-|-5-5-5-5-x-x-0-0-0-0-0-0-o||
||--2--2-x-x-2-2-2-2-x-x-|-5-5-5-5-x-x-1-1-1-1-1-1--||
||--2--2-x-x-4-4-4-4-x-x-|-5-5-5-5-x-x-2-2-2-2-2-2--||
||o-0--0-x-x-4-4-4-4-x-x-|-3-3-3-3-x-x-2-2-2-2-2-2-o||
||-----------2-2-2-2-x-x-|-------------0-0-0-0-0-0--||


   Verse:
    A        F#m         C         E
    Q  E S S E E E S S   E E E S S E E E S S  7x
||-----------2-2-2-x-x-|-----------0-0-0-x-x--||
||o-2--2-x-x-2-2-2-x-x-|-5-5-5-x-x-0-0-0-x-x-o||
||--2--2-x-x-2-2-2-x-x-|-5-5-5-x-x-1-1-1-x-x--||
||--2--2-x-x-4-4-4-x-x-|-5-5-5-x-x-2-2-2-x-x--||
||o-0--0-x-x-4-4-4-x-x-|-3-3-3-x-x-2-2-2-x-x-o||
||-----------2-2-2-x-x-|-----------0-0-0-x-x--||


  A        F#m         C       E
  Q  E S S E E E S S   E E E E E E E S S
|----------2-2-2-x-x-|---------0-0-0-0-0-||
|-2--2-x-x-2-2-2-x-x-|-5-5-5---0-0-0-0-0-||
|-2--2-x-x-2-2-2-x-x-|-5-5-5---1-1-1-0-0-||
|-2--2-x-x-4-4-4-x-x-|-5-5-5-0-2-2-2-0-0-||
|-0--0-x-x-4-4-4-x-x-|-3-3-3-0-2-2-2-----||
|----------2-2-2-x-x-|-------0-0-0-0-----||


 Chorus:
  $
  Am            Am/C                   F/B            F
  Gtr II
  E E E E E E E E   +E  E H    +E  E   E E H    E E   +E  E Q  E E E    +E
|-----------------|------------------|--------------|------------------------|
|-----------------|------------------|--------------|------------------------|
|-----2---2-2-----|-------2----(2)---|-----0--------|-------0----------------|
|---2---2-2-2-----|-----2------------|---3----------|-----3------3-----------|
|-0-------0-0-0-3-|-(3)------------0-|-2--------0-3-|-(3)------3---2pb3r(2)--|
|-----------------|------------------|--------------|------------------------|


  Am            Am/C
  E E E E E E E E   +E  E H    +E  E
|-----------------|------------------|
|-----------------|------------------|
|-----2---2-2-----|-------2----(2)---|
|---2---2-2-2-----|-----2------------|
|-0-------0-0-0-3-|-(3)------------0-|
|-----------------|------------------|


  F/B            F
  E E H    E E   +E  E   +E  E   +E  E   +E  E
|--------------|-------------------------------|
|--------------|-------------------------------|
|-----0--------|-------------------------------|
|---3----------|-------------------------------|
|-2--------0-3-|-(3)-3b5r(3)-3b5r(3)-3b5r(3)-0-|
|--------------|-------------------------------|


  C             D9sus4                   C/E           F
  Q  E. S E E E E   +E  E E. S E E E E   Q  E. S E E E E   +E  E E E E E E E
|-----------------|--------------------|-----------------|-------------------|
|-----------------|--------------------|-----------------|---------5---------|
|-5--5--5-5-5-0-5-|-(5)-5-5--5-5-5-0-5-|-5--5--5-5-5-5---|-------5---5-------|
|-5--5--5-5-5-0-5-|-(5)-5-5--5-5-5-0-5-|-5--5--5-5-5-5---|-----5-------5---0-|
|-3--3--3-3-3-0-5-|-(5)-5-5--5-5-5-0-5-|-7--7--7-7-7-7-8-|-(8)-----------8-0-|
|-----------------|--------------------|-----------------|-------------------|


  C             D9sus4
  Q  E. S E E E E   +E  E E. S E E E E
|-----------------|--------------------|
|-----------------|--------------------|
|-5--5--5-5-5-0-5-|-(5)-5-5--5-5-5-0-5-|
|-5--5--5-5-5-0-5-|-(5)-5-5--5-5-5-0-5-|
|-3--3--3-3-3-0-5-|-(5)-5-5--5-5-5-0-5-|
|-----------------|--------------------|


                               To Coda
  C/E           F
  Q  E. S E E E E   +E  E E E E E E E
|-----------------|---------------------||
|-----------------|---------------------||
|-5--5--5-5-5-5---|---------------------||
|-5--5--5-5-5-5-3-|-(3)-3-3-3-3-3-3-3---||
|-7--7--7-7-7-7-3-|-(3)-3-3-3-3-3-3-3---||
|---------------1-|-(1)-1-1-1-1-1-1-1---||


 Interlude:
  N.C.
  Q.   E Q.   E   Q.   E E E E E   E E E E E E E E   Q   E  E  E  E  E  E
|---------------|----------------|-----------------|----------------------|
|---------------|----------------|-------5---------|----------------------|
|---------------|----------5-----|---5-7---7-5-----|----------------------|
|-7----5h7----5-|-7----5-7---7-5-|-7-----------7-5-|-7S=14----14-12-12-10-|
|---------------|----------------|-----------------|-------14-------------|
|---------------|----------------|-----------------|----------------------|


 Verse:
  A           F#m         C            E
  Gtr I
    Q   E S S E E E S S     E  E E S S E E E S S
|-------------2-2-2-x-x-|--------------0-0-0-x-x-|
|---2---2-x-x-2-2-2-x-x-|---5--5-5-x-x-0-0-0-x-x-|
|---2---2-x-x-2-2-2-x-x-|---5--5-5-x-x-1-1-1-x-x-|
|---2---2-x-x-4-4-4-x-x-|---5--5-5-x-x-2-2-2-x-x-|
|---0---0-x-x-4-4-4-x-x-|---3--3-3-x-x-2-2-2-x-x-|
|-------------2-2-2-x-x-|--------------0-0-0-x-x-|
|
| Gtr II
|   W                      +W
|-----------------------|------------------------|
|-----------------------|------------------------|
|-----------------------|------------------------|
|-----------------------|------------------------|
|-(12)------------------|-(12)-------------------|
|-----------------------|------------------------|


  A           F#m         C            E
    Q   E S S E E E S S     E  E E S S E E E S S
|-------------2-2-2-x-x-|--------------0-0-0-x-x-|
|---2---2-x-x-2-2-2-x-x-|---5--5-5-x-x-0-0-0-x-x-|
|---2---2-x-x-2-2-2-x-x-|---5--5-5-x-x-1-1-1-x-x-|
|---2---2-x-x-4-4-4-x-x-|---5--5-5-x-x-2-2-2-x-x-|
|---0---0-x-x-4-4-4-x-x-|---3--3-3-x-x-2-2-2-x-x-|
|-------------2-2-2-x-x-|--------------0-0-0-x-x-|
|
|                           >
|  +W                      +H          H
|-----------------------|------------------------|
|-----------------------|------------------------|
|-----------------------|------------------------|
|-----------------------|------------------------|
|-(12)------------------|-(12)-------------------|
|-----------------------|------------------------|


    A        F#m         C         E
    Q  E S S E E E S S   E E E S S E E E S S
||-----------2-2-2-x-x-|-----------0-0-0-x-x-|
||o-2--2-x-x-2-2-2-x-x-|-5-5-5-x-x-0-0-0-x-x-|
||--2--2-x-x-2-2-2-x-x-|-5-5-5-x-x-1-1-1-x-x-|
||--2--2-x-x-4-4-4-x-x-|-5-5-5-x-x-2-2-2-x-x-|
||o-0--0-x-x-4-4-4-x-x-|-3-3-3-x-x-2-2-2-x-x-|
||-----------2-2-2-x-x-|-----------0-0-0-x-x-|


                               D.S. al Coda
  A        F#m         C         E
  Q  E S S E E E S S   E E E S S E E E S S    3x
|----------2-2-2-x-x-|-----------0-0-0-x-x----||
|-2--2-x-x-2-2-2-x-x-|-5-5-5-x-x-0-0-0-x-x---o||
|-2--2-x-x-2-2-2-x-x-|-5-5-5-x-x-1-1-1-x-x----||
|-2--2-x-x-4-4-4-x-x-|-5-5-5-x-x-2-2-2-x-x----||
|-0--0-x-x-4-4-4-x-x-|-3-3-3-x-x-2-2-2-x-x---o||
|----------2-2-2-x-x-|-----------0-0-0-x-x----||


 Chorus:
  &
  C             D9sus4                   C/E           F
  Gtr II
  Q  E. S E E E E   +E  E E. S E E E E   Q  E. S E E E E   +E  E E E E E E E
|-----------------|--------------------|-----------------|--------------------|
|-----------------|--------------------|-----------------|---------5----------|
|-5--5--5-5-5-0-5-|-(5)-5-5--5-5-5-0-5-|-5--5--5-5-5-5---|-------5---5--------|
|-5--5--5-5-5-0-5-|-(5)-5-5--5-5-5-0-5-|-5--5--5-5-5-5---|-----5-------5---0--|
|-3--3--3-3-3-0-5-|-(5)-5-5--5-5-5-0-5-|-7--7--7-7-7-7-8-|-(8)-----------8-0--|
|-----------------|--------------------|-----------------|--------------------|


  C             D9sus4                   C/E           F
  Q  E. S E E E E   +E  E E. S E E E E   Q  E. S E E E E   +E  E E E E E E E
|-----------------|--------------------|-----------------|-------------------||
|-----------------|--------------------|-----------------|-------------------||
|-5--5--5-5-5-0-5-|-(5)-5-5--5-5-5-0-5-|-5--5--5-5-5-5---|-------------------||
|-5--5--5-5-5-0-5-|-(5)-5-5--5-5-5-0-5-|-5--5--5-5-5-5-3-|-(3)-3-3-3-3-3-3-3-||
|-3--3--3-3-3-0-5-|-(5)-5-5--5-5-5-0-5-|-7--7--7-7-7-7-3-|-(3)-3-3-3-3-3-3-3-||
|-----------------|--------------------|---------------1-|-(1)-1-1-1-1-1-1-1-||


  Am            Am/C              F/B             F
  W                 +H.      Q    E E H        E  E   +W
|-----------------|-------------|-------------------|--------|
|-----------------|-------------|-------------------|--------|
|-2---------------|-(2)---------|-----0-------------|--------|
|-2---------------|-(2)---------|---3-------------3-|-(3)----|
|-0---------------|-(0)---------|-2------------0--3-|-(3)----|
|-----------------|-------------|-------------------|--------|
|
| Gtr I
| H    +Q   +E  E   +W            H      +Q   +E  E   +W
|-0----(0)--(0)-0-|-(0)---------|-----------------1-|-(1)----|
|-1----(1)--(1)-1-|-(1)---------|-1------(1)--(1)-1-|-(1)----|
|-2----(2)--(2)-2-|-(2)---------|-2------(2)--(2)-2-|-(2)----|
|-2----(2)--(2)-2-|-(2)---------|-3------(3)--(3)-3-|-(3)----|
|-0----(0)--(0)-3-|-(3)---------|-2------(2)--(2)-3-|-(3)----|
|-----------------|-------------|-----------------1-|-(1)----|


  Am            Am/C                   F/B            F
  E E E E E E E E   +E  E H    +E  E   E E H    E E   +E  E Q  +H
|-----------------|------------------|--------------|-----------------||
|-----------------|------------------|--------------|-----------------||
|-----2---2-2-----|-------2----(2)---|-----0--------|-------0--(0)----||
|---2---2-2-2-----|-----2------------|---3----------|-----3-----------||
|-0-------0-0-0-3-|-(3)------------0-|-2--------0-3-|-(3)-------------||
|-----------------|------------------|--------------|-----------------||


 End/Rall.:
  H.=H
  Am        F#m+5     Csus2   E7
  E E E E a E E E E   E E E E E E S S  E    +W
|-------------------|---------------------|--------*|
|-------------------|---------------------|--------*|
|-------------------|-----0-------2p1-(1)-|-(1)----*|
|-7---0---------0---|---0---0----------0--|-(0)----*|
|-7-7---7s4---4---0-|-3---------2---------|--------*|
|-5---------2-------|---------0-----------|--------*|


Duration Legend
---------------
W - whole; H - half; Q - quarter; E - 8th; S - 16th; T - 32nd; X - 64th; a - acciaccatura
+ - note tied to previous; . - note dotted; .. - note double dotted
Uncapitalized letters represent notes that are staccato (1/2 duration)
Irregular groupings are notated above the duration line
Duration letters will always appear directly above the note/fret number it represents the
duration for.  Duration letters with no fret number below them represent rests.  Multi-
bar rests are notated in the form Wxn, where n is the number of bars to rest for.  Low
melody durations appear below the staff

Tablature Legend
----------------
 h   - hammer-on
 p   - pull-off
 b   - bend
 pb  - pre-bend
 r   - bend release (if no number after the r, then release immediately)
 /\  - slide into or out of (from/to "nowhere")
 s   - legato slide
 S   - shift slide
  - natural harmonic
[n]  - artificial harmonic
n(n) - tapped harmonic
 ~   - vibrato
 tr  - trill
 T   - tap
 TP  - trem. picking
 PM  - palm muting
\n/  - tremolo bar dip; n = amount to dip
 \n  - tremolo bar down
 n/  - tremolo bar up
/n\  - tremolo bar inverted dip
 =   - hold bend; also acts as connecting device for hammers/pulls
 <>  - volume swell (louder/softer)
 x   - on rhythm slash represents muted slash
 o   - on rhythm slash represents single note slash

Misc Legend
-----------
 |  - bar
||  - double bar
||o - repeat start
o|| - repeat end
*|  - double bar (ending)
 :  - bar (freetime)
 $  - Segno
 &  - Coda
Tempo markers -  = BPM(8/16=s8/s16), where s8 = swing 8ths, s16 = swing 16ths

Tap to rate this tab
 
# A B C D E F G H I J K L M N O P Q R S T U V W X Y Z