Song name
# A B C D E F G H I J K L M N O P Q R S T U V W X Y Z

Manic Street Preachers - Suicide Is Painless tab

Intro:

E|-----------------------|-----------------|
B|--------1--0-----------|--------1--0--1--|
G|-----2-----------------|-----2-----------|
D|--2--------------------|--2--------------|
A|-----------------------|-----------------|
E|-----------------------|-----------------|
        

          Dm7           G7
  Through Early morning fog I see
  C	       Am7
  Visions of the things to be
      Dm7              G7
  The pains that are withheld for me
  C             Am
  I realize and I can see
	
Chorus: 
       Dm7        G7
  That Suicide is Painless
  C                 Am7
  It brings on many changes
  Dm7               G7            Am
  And I can take or leave it if I please


2)The game of life is hard to play
  I'm going to lose it anyway
  The losing card I'll someday lay
  So this is all I have to say

Chorus: 
       Dm7        G7
  That Suicide is Painless
  C                 Am7
  It brings on many changes
  Dm7               G7            Am
  And I can take or leave it if I please


3)The sword of time will pierce our skins
  It doesn't hurt when it begins
  But as it works it's way on in
  The pain grow stronger watch it grin
  
Chorus: 
       Dm7        G7
  That Suicide is Painless
  C                 Am7
  It brings on many changes
  Dm7               G7            Am
  And I can take or leave it if I please


4)A brave man once requested me
  To answer questions that are key
  Is it to be or not to be
  And I replied "Oh why ask me."

Chorus: 
       Dm7        G7
  That Suicide is Painless
  C                 Am7
  It brings on many changes
  Dm7               G7            Am
  And I can take or leave it if I please
  

E|-----------------------|-----------------|
B|--------1--0-----------|--------1--0--1--|
G|-----2-----------------|-----2-----------|
D|--2--------------------|--2--------------|
A|-----------------------|-----------------|
E|-----------------------|-----------------|

Chorus: 
       Dm7        G7
  That Suicide is Painless
  C                 Am7
  It brings on many changes
  Dm7               G7            Am
  And I can take or leave it if I please

Chorus: 
       Dm7        G7
  That Suicide is Painless
  C                 Am7
  It brings on many changes
      Dm7            G7            Am
  And you can do the same thing if you please



                E|-----------------------|-----------------|
                B|--------1--0-----------|--------1--0--1--|
                G|-----2-----------------|-----2-----------|
                D|--2--------------------|--2--------------|
                A|-----------------------|-----------------|
                E|-----------------------|-----------------|
Tap to rate this tab
 
# A B C D E F G H I J K L M N O P Q R S T U V W X Y Z