Song name
# A B C D E F G H I J K L M N O P Q R S T U V W X Y Z

Manowar - Die For Metal tab

Band:  MANOWAR
Album: GODS OF WAR
Song:  DIE FOR METAL

Copyright (c)  MAGIC CIRCLE MUSIC 2007
Version 1.0 - 2007-05-07

Transcribed By: SMETSAR
Email:          SMETSAR@HOTMAIL.COM


.  - palm mute           /  - slide up to
\  - slide down to       ~  - vibrato
h  - hammer on           b  - Bend
p  - pull off            Suffixes for bend
t  - tap                 f  - full bend    h - half bend
ph - pinched harmonic    q  - quarter bend t - tap bend
*  - see comment         ^  - Hold bend    r release bend
x  - Stuccatto           ~  - vibrato bend
,  - slight palm mute    () - ghost note, sustained note
"  - tremolo note        <> - Trill

Enjoy the song! I haven't found the solo's, because
they were too difficult ;-)
HAIL AND KILL!!!

INTRO:
E|-------------------------------------------------------|
B|-------------------------------------------------------|
G|-------------------------------------------------------|
D|-7-7-7-7--8-8-8-8----7-7-7-7--5-5-5-5------------------| (X2)
A|-5-5-5-5--5-5-5-5----3-3-3-3--2-2-2-2------------------|
D|-------------------------------------------------------|

E|-------------------------------------------------------|
B|-------------------------------------------------------|
G|-------------------------------------------------------|
D|-3-2-3-0-----------------------------------------------|
A|-1-0-1-0-----------------------------------------------|
D|-------0-----------------------------------------------|

RIFF 2: X5
E|-------------------------------------------------------|
B|-------------------------------------------------------|
G|-------------------------------------------------------|
D|-0-------2-------3-------5-------0---------------------|
A|-0-------2-------3-------5-------0---------------------|
D|-0-0-0-0-2-2-2-2-3-3-3-3-5-5-5-5-0---------------------|
     . . .   . . .   . . .   . . .

RIFF 3:
E|-------------------------------------------------------|
B|-------------------------------------------------------|
G|-7--9--10--12------------------------------------------|
D|-7--9--10--12------------------------------------------|
A|-5--7---8--10-\----------------------------------------|
D|-------------------------------------------------------|

RIFF 4: X2
E|-------------------------------------------------------|
B|-------------------------------------------------------|
G|-------------------------------------------------------|
D|-7-7-7-7--8-8-8-8--5-5-5----7-7-7-7--5-5-5-5--3-2-3-0--|
A|-5-5-5-5--5-5-5-5--5-5-5----3-3-3-3--2-2-2-2--1-0-1-0--|
D|----------------------------------------------------0--|

RIFF 2: X4
RIFF 4: X2
RIFF 2: X4

FILL 1:
E|-------------------------------------------------------|
B|-------------------------------------------------------|
G|-------------------------------------------------------|
D|-------------------------------------------------------|
A|---0---0---0---0---0---0-------------------------------|
D|-5---5---5---5---5---5---5-----------------------------|
   . . . . . . . . . . . . .

RIFF 4: X4


END
Tap to rate this tab
# A B C D E F G H I J K L M N O P Q R S T U V W X Y Z