Song name
# A B C D E F G H I J K L M N O P Q R S T U V W X Y Z

Mansions - You Got Cool tab

-------------------------------------------------------------------------------
                             You Got Cool - Mansions
-------------------------------------------------------------------------------
Tabbed by:
E-mail:

Tuning:open D (DADF#AD

Intro:

e|----0--0--0--0--0-------------------0--0--0--0--0-------------------------|
B|----0--0--5--4--0-------------------0--0--5--4--0-------------------------|
G|----0--0--0--0--3--3--5--3--3/1--0--0--0--0--0--3--3--5--3----------------|
D|----0--0--0--0--0--4--4--4----------0--0--0--0--0--4--4--4----------------|
A|----0--0--0--0--0--4--4--4----------0--0--0--0--0--4--4--4----------------|
E|----0--0--0--0--0--4--4--4----------0--0--0--0--0--4--4--4----------------|

verse
e|--------------------------------------------------------------------------|
B|--------------------------------------------------------------------------|
G|----3--3--3--3--1--3--1--5--7---------------------------------------------|
D|----0--4--0--4--2--4--2--5--7---------------------------------------------|
A|----0--4--0--4--2--4--2--5--7---------------------------------------------|
E|----0--4--0--4--2--4--2--5--7---------------------------------------------|

chorus
e|--------------------------------------------------------------------------|
B|--------------------------------------------------------------------------|
G|----5--7--8--7--5--------------4------------------------------------------|
D|----5--7--9--7--5-----x2-plus--5------------------------------------------|
A|----5--7--9--7--5--------------5------------------------------------------|
E|----5--7--9--7--5--------------5------------------------------------------|

bridge  ("can you admit ..."
e|----0-----0---------------------------------------------------------------|
B|----0-----0---------------------------------------------------------------|
G|----0--3--0--------1--4---------------------------------------------------|
D|----0--4--5----x4--2--5---------------------------------------------------|
A|----0--4--5--------2--5---------------------------------------------------|
E|----0--4--5--------2--5---------------------------------------------------|

Tap to rate this tab
# A B C D E F G H I J K L M N O P Q R S T U V W X Y Z