Guitaretab - guitar tabs
Song name
# A B C D E F G H I J K L M N O P Q R S T U V W X Y Z

Manson Marilyn - Irresponsible Hate Anthem tab

 tabbed by saissem

song: irresponsible hate anthem
album: antichrist superstar
artist: marilyn manson

tuning: standard (EADG)

/ = slide you finger down one fret to another

I'm pretty sure that everything is right in this tab except for one thing..
what I want you to remember is that it takes shorter time to read than you'd think, this
like quite a bunch of stuff to read but it will not take as long as you'd probably
so give yourself time and read through the tab, I will be guiding you as much as
all the time. =D

if you can't seem to figure out how the song goes basing on my tab or it doesn't sound
when you play it, just email me on thordur_babe@hotmail.com and I will send you a few
long tape of me playing one of the riffs and you’ll hear that it is right =D.. I hope
able to help you =D

start this at 00:35 in the song but only do it once. if you play it right, the entire
will take exactly 10 seconds

G|-----------------------------------------------------------------|
D|---------------------------------------------------------22222222|
A|--0-2-3-2-0---0-2------------0-2-3-2-0---0-2-3-2-0---0-2---------|
E|2-----------2-----00000000-2-----------2-----------2-------------|

then at 00:45 when manson starts singing, you start doing this. it's the exact same
as the one above except that this riff ends with 8 zero's instead of two's. keep doing this
the singers finishes saying " I am the animal who will not be himself (you do the riff
which means that every verse is 20 seconds.)

G|-----------------------------------------------------------------|
D|-----------------------------------------------------------------|
A|--0-2-3-2-0---0-2------------0-2-3-2-0---0-2-3-2-0---0-2---------|
E|2-----------2-----00000000-2-----------2-----------2-----00000000|x2

here comes the chorus. when the singer starts screaming "f*** it" which is at
01:06 you start playing this, it's the same riff as the intro

G|-----------------------------------------------------------------|
D|---------------------------------------------------------22222222|
A|--0-2-3-2-0---0-2------------0-2-3-2-0---0-2-3-2-0---0-2---------|
E|2-----------2-----00000000-2-----------2-----------2-------------|

exactly 10 seconds later at 01:16 you start doing this riff (it's the one with the 8
do it twice.

G|-----------------------------------------------------------------|
D|-----------------------------------------------------------------|
A|--0-2-3-2-0---0-2------------0-2-3-2-0---0-2-3-2-0---0-2---------|
E|2-----------2-----00000000-2-----------2-----------2-----00000000|x2

then comes the chorus again and as I've said, it takes 10 seconds if you do it right.

G|-----------------------------------------------------------------|
D|---------------------------------------------------------22222222|
A|--0-2-3-2-0---0-2------------0-2-3-2-0---0-2-3-2-0---0-2---------|
E|2-----------2-----00000000-2-----------2-----------2-------------|

at this point, 1:46, the bridge starts. while the first to riffs where the same riffs
with different endings, this one is a little different. if you do it perfectly it should
10,5 seconds. you do it twice which makes it 21 seconds. (when you do the open E string
this riff, don't stop the tone until you do the next tone [this will make it sound better]).

G|----------------------------------------------|
D|----------------------------------------------|
A|--3-2-0-2-0---3-2-0-2-0---3-2-0-2-0-----------|
E|2-----------2-----------2-----------0----0-1--|x2
[ Tab from: http://www.guitaretab.com/m/manson-marilyn/11135.html ]
at 02:07 a small pause comes for the singer but the bass keeps going and somewhat of a
solo comes up and after you've done this riff below once (which should take 10 seconds)
singer begins again and, as usual, you do the riff twice which makes this verse plus
of a guitar solo 30 seconds, so play the riff 3 times.

G|-----------------------------------------------------------------|
D|-----------------------------------------------------------------|
A|--0-2-3-2-0---0-2------------0-2-3-2-0---0-2-3-2-0---0-2---------|
E|2-----------2-----00000000-2-----------2-----------2-----00000000|x3

once again, at 2:37  we have the chorus which, by this point you should have gotten the
of, it takes 10 seconds as usual. just remember, don't be hasty, but still do it kind of quickly.

G|-----------------------------------------------------------------|
D|---------------------------------------------------------22222222|
A|--0-2-3-2-0---0-2------------0-2-3-2-0---0-2-3-2-0---0-2---------|
E|2-----------2-----00000000-2-----------2-----------2-------------|

here, at 02:47 you do the bridge again (which is recognized by the singer singing "
someone else's ni***r"). you do the riff twice as usual (I’ll mark how many time's in the
so you wont forget). this should take 21 seconds.

G|----------------------------------------------|
D|----------------------------------------------|
A|--3-2-0-2-0---3-2-0-2-0---3-2-0-2-0-----------|
E|2-----------2-----------2-----------0----0-1--|x2

at 3:08 you start doing a different riff, that thing which I referred to before as
of a guitar solo comes back and then the singer starts singing " America can not see
. this one is quite tough to tab but I am quite sure that I got it right. at this point
will be switching between the second and third fret(2-3)on the E string while he is singing
as soon as he is finished saying  “see anything“, you go up to the A string and do the
there and when he starts singing you go back to the E string and repeat. if you are a
this riff could be quite hard because doing the riff once should only take 5 seconds,
whole part were you are playing this riff put together is exactly 30 seconds which
that you have to play this riff 6 times. Remember, really fast.

G|-----------------------------------|
D|-----------------------------------|
A|---------------------------33-22-00|
E|222-333-222-333-222-333-22---------|x6

at 03:38 the singer screams and 03:39 the chorus begins for the last time. remember,
10 seconds

G|-----------------------------------------------------------------|
D|---------------------------------------------------------22222222|
A|--0-2-3-2-0---0-2------------0-2-3-2-0---0-2-3-2-0---0-2---------|
E|2-----------2-----00000000-2-----------2-----------2-------------|

now it should be 03:49 and time for you to finish this song. you do the "everybody's
else's ni***r twice but with different endings and you do every note 3 times instead of
once (there are exceptions, somewhere you only do the note twice).

repeat this seven times...

G|----------------------|
D|----------------------|
A|----333-222-000-22-00-|
E|222-------------------|x7

and then finish of with

G|---------------------|
D|22222223-------------|
A|---------------------|
E|--------2--2--2--2/1-|

those last two's are kind of an outro but they are in the song itself so I decided to
them there. I really hope you gave yourself the time to read through all this and I also
that you had fun along the way. I hope you had fun and I hope you got the song right...

just in case you would like to play the song but don't want to go through the entire
again.. here you have it

[chorus]
[verse]x2
[chorus]
[verse]x2
[chorus]
[bridge]x2
[verse]x3
[chorus]
[bridge]x2
[that really fast thing that I couldn't come up with a name for]x6
[chorus]
[different ending bridge]
[outro]
Related for Irresponsible Hate Anthem tab
Advertisement will be closed in 10 seconds