Guitaretab - guitar tabs
Song name
# A B C D E F G H I J K L M N O P Q R S T U V W X Y Z

Marc Velasco - Ordinary Song tab

________________________________________________________________
****************************************************************
Title: Ordinary Song
Artist: Marc Velasco
Tabbed by: Reynaldo R. Ramos
e-mail: rey_rrr20@yahoo.com
Tuning: standard tuning
Date: June 20,2004
________________________________________________________________
****************************************************************
Para ito sa mga nagrequest sakin na itab ito!ayan na po sya accurate po
yan,honestly alam ko 2 naggigitara dito pero nagawaan ko ng paraan mag
eenjoy kayo d2 pramiz! Paki rate na lang poh yung 5 ha register kayo d2
sa site na2 para mas masaya!bsta ok ito!sana mapabilib nyo mga
nililigawan nyo....tignan nyo na lang yung lyrics nito sa isang
version ko sa chords nito mas tama yung chords na ginamit ko
ngayon d2 compare sa dati!

Intro: C,C/B-Am7-Dm7-G(2x)
  C        C/B    Am7             Dm7  
|-------0---------------3---0-----------1----------|
|-1-------------1---------1-----1-----1-----1------|
|-----0---0---0-------0-------0-----2-----2-----2--|
|---2---------------2-------------0-----------0----|
|-3---------2-----0--------------------------------|
|--------------------------------------------------|
  G              C        C/B   Am7  
|----------------------0---------------3---0-------|
|-0h1----1/3--3--1-------------1---------1-----1---|
|-0h2----2/4--4------0---0---0-------0-------0-----|
|-----0------------2---------------2---------------|
|----------------3---------2-----0-----------------|
|-3------------------------------------------------|
  Dm7             G
|-------1------------------------------------------|
|-----1-----1-----0h1----1/3--3-0h1----1/3--3-----|
|---2-----2-----2-0h2----2/4--4-0h2----2/4--4-----|
|-0-----------0-------0--------------0-------------|
|--------------------------------------------------|
|-----------------3--------------3-----------------|
[ Tab from: http://www.guitaretab.com/m/marc-velasco/47252.html ]
Stanza:
  C        C/B    Am7             Dm7  
|-------0---------------3---0---------------5------|
|-1-------------1---------1-----1-------6-----6----|
|-----0---0---0-------0-------0-------5---5-----5--|
|---2---------------2---------------7--------------|
|-3---------2-----0---------------5----------------|
|--------------------------------------------------|
  G               Dm7             G
|---------------------------5---------------------|
|-------1---0-----------6-----6---------1---0-----|
|-----0-------0-------5---5-----5-----0-------0---|
|---0-----0-----0---7---------------0-----0-----0-|
|-----------------5-------------------------------|
|-3-------------------------------3---------------|
  C                G
|-----------0--------------------|
|-------1-----1---0h1-----------|
|-----0---0-----0--0h2---1/3--3--|
|---2------------------0-2/4--4--|
|-3------------------------------|
|------------------3-------------|
  C        C/B   Am7             Dm7  
|-------0---------------3---0---------------5------|
|-1-------------1---------1-----1-------6-----6----|
|-----0---0---0-------0-------0-------5---5-----5--|
|---2---------------2---------------7--------------|
|-3---------2-----0---------------5----------------|
|--------------------------------------------------|


  G               Dm7             G 
|---------------------------5---------------------|
|-------1---0-----------6-----6---------1---0-----|
|-----0-------0-------5---5-----5-----0-------0---|
|---0-----0-----0---7---------------0-----0-----0-|
|-----------------5-------------------------------|
|-3-------------------------------3---------------|
  C               C7
|-----------0-------------0------------|
|-------1-----1------1-3----1---------|
|-----0---0-----0---3------3---3-------|
|---2----------------------------------|
|-3---------------3--------------------|
|--------------------------------------|

Refrain:
  F               G               Em
|-------------------------------------------------|
|-------1---3-----------1---0-----------3---------|
|-----2-------2-------0-------0---------0---0-----|
|---3-----3-----3---0-----0-----0-----2-------2---|
|-----------------------------------2-----2-----2-|
|-1---------------3---------------0---------------|
  Am       G       F               G
|--------------------------------------------------|
|-------1--0-------------1---3-----------1---0-----|
|-----2-2--0---0-------2-------2-------0-------0---|
|---2--------0---0---3-----3-----3---0-----0-----0-|
|-0-----0------------------------------------------|
|----------3-------1---------------3---------------|
  Em              Am      G       F
|-------------------------------------------------|
|-------3---------------1-0-------------1---3-----|
|-------0---0---------2-2-0---0-------2-------2---|
|-----2-------2-----2-------0---0---3-----3-----3-|
|---2-----2-----2-0-----0-------------------------|
|-0-----------------------3-------1---------------|
  G                Dm7     G
|------------------------1----------|
|-------1---0----------1---------1--|
|-----0-------0------2---------0----|
|---0-----0-----0--0---------0------|
|-----------------------------------|
|-3------------------------3--------|
  C               G
|-----------0---------------------|
|-------1-----1---0h1----1/3--3---|
|-----0---0-----0-0h2----2/4--4---|
|---2------------------0----------|
|-3-------------------------------|
|-----------------3---------------|
Repeat stanza:
Repeat refrain:
Repeat first part of stanza:
Outro: do intro pattern with hold at the end